» » »

Come On Come In Bass tabs (ver.2)

Artists:  A B C D E F G H I J K L M N O P Q R S T U V W X Y Z # 

Come On Come In Bass tabs (ver.2)

Velvet Revolver
Rating:
0/5 (0 votes)

Hard to play? Try these video lessons and learn fast.
                Tuning regular except for E string, which is tuned down to D

Main Riff (starting riff):

 G|--------------------------|--------------------------|
 D|--------------------------|--------------------------|
 A|--------------3-----------|--------------3-----------|
 D|0-0-7-0-6-5-0---0-3-0-345-|0-0-7-0-6-5-0---0-3-0-543-|

Verse Riff:

 G|--------------------------|--------------------------|------------------|
 D|-----------------------333|1-1-1-1-1-1-1-1-1-1-1-1-1-|------------------|
 A|--------------------------|--------------------------|3-3-3-3-3-3-3-3-3-|
 D|0-0-0-0-0-0-0-0-0-0-0-----|--------------------------|------------------|

Pre-chorus:

 G|--------------------------------|
 D|--------------------------------|
 A|--------------------------------|
 D|55544433322222221111111111111111|

Bridge:

 G|--------------------------------|-------------------------------|
 D|--------------------------------|-------------------------------|
 A|6-6-6-6-6-6-6-6-6-6-6-6-6-6-6-6-|3-3-3-3-3-3-3-3-3-3-3-3-3-3-3-3|
 D|--------------------------------|-------------------------------|

 G|--------------------------------|-------------------------------|
 D|--------------------------------|-------------------------------|
 A|6-6-6-6-6-6-6-6-6-6-6-6-6-6-6-6-|3-3-3-3-3-3-3-3-1-1-1-1-1-1-1-1|
 D|--------------------------------|-------------------------------|

 G|--------------------------------|
 D|--------------------------------|
 A|6-6-6-6-6-6-6-6-6-6-6-6-6-6-6-6-|
 D|--------------------------------|

Start note:  5th fret on the 3rd string

Order:

Start note (play it at the end of the intro of guitar)
Main Riff (X2)
Verse Riff(X2)
Pre-chorus (X2)
Main Riff (X2)
Verse Riff(X2)
Pre-chorus (X2)
Main Riff (X2)
Bridge (X1)
Main Riff (X2)
Pre-chorus (X2)
Main Riff until end


Also, this song is not on any of VR's albums; it's on the Fantastic Four soundtrack album. :)
            
Hard to play? Try these video lessons and learn fast. | Correct




comments powered by Disqus
↑ Back to top | Tablatures and chords are parodies/interpretations of the original songs. You may use it for private study, scholarship, research or language learning purposes only