» » »

Can't Get It Out Of My Head Tabs (ver.2)

Artists:  A B C D E F G H I J K L M N O P Q R S T U V W X Y Z # 

Can't Get It Out Of My Head Tabs (ver.2)

Velvet Revolver
Rating:
5/5 (2 votes)

Tabs too difficult? Try these video lessons and learn fast.
                -------------------------------------------------------------------------------
           Can't Get It Out Of My Head - Velvet Revolver
-------------------------------------------------------------------------------

Tuning: Standar

INTRO

GTR I
e|------------------|------------------|------------------|------------------|
B|-5-5-5-5----------|------------------|-5-5-5-5----------|------------------|
G|-5-5-5-5--5-5-5-5-|-5-5-5-5--5-5-5-5-|-5-5-5-5--5-5-5-5-|-5-5-5-5--5-5-5-5-|
D|-5-5-5-5--5-5-5-5-|-5-5-5-5--5-5-5-5-|-5-5-5-5--5-5-5-5-|-5-5-5-5--5-5-5-5-|
A|-3-3-3-3--2-2-2-2-|-0-0-0-0--2-2-2-2-|-3-3-3-3--2-2-2-2-|-0-0-0-0--2-2-2-2-|
E|------------------|------------------|------------------|------------------|

GTR II
e|------------------|------------------|------------------|------------------|
B|------------------|------------------|------------------|------------------|
G|------------------|------------------|------------------|------------------|
D|------------------|------------------|------------------|------------------|
A|------------------|------------------|-3---3-5-2----2-3-|-0---0-0-2----0-2-|
E|------------------|------------------|------------------|------------------|


GTR I
e|------------------|------------------|
B|-5-5-5-5----------|------------------|
G|-5-5-5-5--5-5-5-5-|-5-5-5-5--5-5-5-5-|
D|-5-5-5-5--5-5-5-5-|-5-5-5-5--5-5-5-5-|
A|-3-3-3-3--2-2-2-2-|-0-0-0-0--2-2-2-2-|
E|------------------|------------------|

GTR II
e|------------------|------------------|
B|------------------|------------------|
G|------------------|------------------|
D|------------------|------------------|
A|-3---3-5-2----2-3-|-0---0-0-2----0-2-|
E|------------------|------------------|



VERSE

GTR I
e|------------------|------------------|------------------|------------------|
B|-5-5-5-5-5-5-5-5--|-5-5-5-5-5-5-5-5--|------------------|------------------|
G|-5-5-5-5-5-5-5-5--|-5-5-5-5-5-5-5-5--|-2-2-2-2-2-2-2-2--|-2-2-2-2-2-2-2-2--|
D|-5-5-5-5-5-5-5-5--|-5-5-5-5-5-5-5-5--|-2-2-2-2-2-2-2-2--|-2-2-2-2-2-2-2-2--|
A|-3-3-3-3-3-3-3-3--|-3-3-3-3-3-3-3-3--|-0-0-0-0-0-0-0-0--|-0-0-0-0-0-0-0-0--|
E|------------------|------------------|------------------|------------------|

GTR II
e|------------------|------------------|------------------|------------------|
B|------------------|------------------|------------------|------------------|
G|------------------|------------------|----------------9-|-10b12r10---------|
D|------------------|------------------|------------------|------------------|
A|------------------|------------------|------------------|------------------|
E|------------------|------------------|------------------|------------------|


GTR I
e|------------------|------------------|------------------|------------------|
B|-5-5-5-5-5-5-5-5--|-5-5-5-5-5-5-5-5--|------------------|------------------|
G|-5-5-5-5-5-5-5-5--|-5-5-5-5-5-5-5-5--|-2-2-2-2-2-2-2-2--|-2-2-2-2-2-2-2-2--|
D|-5-5-5-5-5-5-5-5--|-5-5-5-5-5-5-5-5--|-2-2-2-2-2-2-2-2--|-2-2-2-2-2-2-2-2--|
A|-3-3-3-3-3-3-3-3--|-3-3-3-3-3-3-3-3--|-0-0-0-0-0-0-0-0--|-0-0-0-0-0-0-0-0--|
E|------------------|------------------|------------------|------------------|

GTR II
e|------------------|------------------|------------------|------------------|
B|------------------|------------------|------------------|------------------|
G|------------------|------------------|---------------12-|-13b15r13---------|
D|------------------|------------------|------------------|------------------|
A|------------------|------------------|------------------|------------------|
E|------------------|------------------|------------------|------------------|


GTR I
e|------------------|------------------|------------------|------------------|
B|------------------|------------------|------------------|------------------|
G|-5----------------|-2----------------|-5----------------|-2------------0---|
D|-5----------------|-2----------------|-5----------------|-2------------X---|
A|-3----------------|-0----------------|-3----------------|-0------------2---|
E|------------------|------------------|------------------|--------------3---|

GTR II
e|------------------|------------------|------------------|------------------|
B|------------------|------------------|------------------|------------------|
G|------------------|------------------|------------------|------------------|
D|------------------|------------------|------------------|------------------|
A|------------------|------------------|------------------|------------------|
E|------------------|------------------|------------------|------------------|



CHORUS

GTR I
e|------------------|------------------|------------------|------------------|
B|-5-5-5-5----------|------------------|-5-5-5-5----------|------------------|
G|-5-5-5-5--5-5-5-5-|-5-5-5-5--5-5-5-5-|-5-5-5-5--5-5-5-5-|-5-5-5-5--5-5-5-5-|
D|-5-5-5-5--5-5-5-5-|-5-5-5-5--5-5-5-5-|-5-5-5-5--5-5-5-5-|-5-5-5-5--5-5-5-5-|
A|-3-3-3-3--2-2-2-2-|-0-0-0-0--2-2-2-2-|-3-3-3-3--2-2-2-2-|-0-0-0-0--2-2-2-2-|
E|------------------|------------------|------------------|------------------|

GTR II
e|------------------|------------------|------------------|------------------|
B|------------------|------------------|------------------|------------------|
G|------------------|------------------|------------------|------------------|
D|------------------|------------------|------------------|------------------|
A|------------------|------------------|------------------|------------------|
E|------------------|------------------|------------------|------------------|


GTR I
e|------------------|------------------|------------------|------------------|
B|-5-5-5-5----------|------------------|-5-5-5-5----------|------------------|
G|-5-5-5-5--5-5-5-5-|-5-5-5-5--5-5-5-5-|-5-5-5-5--5-5-5-5-|-5-5-5-5-------7--|
D|-5-5-5-5--5-5-5-5-|-5-5-5-5--5-5-5-5-|-5-5-5-5--5-5-5-5-|-5-5-5-5-------7--|
A|-3-3-3-3--2-2-2-2-|-0-0-0-0--2-2-2-2-|-3-3-3-3--2-2-2-2-|-0-0-0-0---5---5--|
E|------------------|------------------|------------------|-----------3------|

GTR II
e|------------------|------------------|------------------|------------------|
B|------------------|------------------|------------------|------------------|
G|------------------|------------------|------------------|------------------|
D|------------------|------------------|------------------|------------------|
A|------------------|------------------|------------------|------------------|
E|------------------|------------------|------------------|------------------|



VERSE

GTR I
e|------------------|------------------|------------------|------------------|
B|-5-5-5-5-5-5-5-5--|-5-5-5-5-5-5-5-5--|------------------|------------------|
G|-5-5-5-5-5-5-5-5--|-5-5-5-5-5-5-5-5--|-2-2-2-2-2-2-2-2--|-2-2-2-2-2-2-2-2--|
D|-5-5-5-5-5-5-5-5--|-5-5-5-5-5-5-5-5--|-2-2-2-2-2-2-2-2--|-2-2-2-2-2-2-2-2--|
A|-3-3-3-3-3-3-3-3--|-3-3-3-3-3-3-3-3--|-0-0-0-0-0-0-0-0--|-0-0-0-0-0-0-0-0--|
E|------------------|------------------|------------------|------------------|

GTR II
e|------------------|------------------|------------------|------------------|
B|------------------|------------------|------------------|-10b12r10---------|
G|------------------|------------------|----------------9-|------------------|
D|------------------|------------------|------------------|------------------|
A|------------------|------------------|------------------|------------------|
E|------------------|------------------|------------------|------------------|


GTR I
e|------------------|------------------|------------------|------------------|
B|-5-5-5-5-5-5-5-5--|-5-5-5-5-5-5-5-5--|------------------|------------------|
G|-5-5-5-5-5-5-5-5--|-5-5-5-5-5-5-5-5--|-2-2-2-2-2-2-2-2--|-2-2-2-2-2-2-2-2--|
D|-5-5-5-5-5-5-5-5--|-5-5-5-5-5-5-5-5--|-2-2-2-2-2-2-2-2--|-2-2-2-2-2-2-2-2--|
A|-3-3-3-3-3-3-3-3--|-3-3-3-3-3-3-3-3--|-0-0-0-0-0-0-0-0--|-0-0-0-0-0-0-0-0--|
E|------------------|------------------|------------------|------------------|

GTR II
e|------------------|------------------|------------------|------------------|
B|------------------|------------------|------------------|-13b15r13---------|
G|------------------|------------------|---------------12-|------------------|
D|------------------|------------------|------------------|------------------|
A|------------------|------------------|------------------|------------------|
E|------------------|------------------|------------------|------------------|


GTR I
e|------------------|------------------|------------------|------------------|
B|------------------|------------------|------------------|------------------|
G|-5----------------|-2----------------|-5----------------|-2-------------0--|
D|-5----------------|-2----------------|-5----------------|-2-------------X--|
A|-3----------------|-0----------------|-3----------------|-0-------------2--|
E|------------------|------------------|------------------|---------------3--|

GTR II
e|------------------|------------------|------------------|------------------|
B|------------------|------------------|------------------|------------------|
G|------------------|------------------|------------------|------------------|
D|------------------|------------------|------------------|------------------|
A|------------------|------------------|------------------|------------------|
E|------------------|------------------|------------------|------------------|



CHORUS

GTR I
e|------------------|------------------|------------------|------------------|
B|-5-5-5-5----------|------------------|-5-5-5-5----------|------------------|
G|-5-5-5-5--5-5-5-5-|-5-5-5-5--5-5-5-5-|-5-5-5-5--5-5-5-5-|-5-5-5-5--5-5-5-5-|
D|-5-5-5-5--5-5-5-5-|-5-5-5-5--5-5-5-5-|-5-5-5-5--5-5-5-5-|-5-5-5-5--5-5-5-5-|
A|-3-3-3-3--2-2-2-2-|-0-0-0-0--2-2-2-2-|-3-3-3-3--2-2-2-2-|-0-0-0-0--2-2-2-2-|
E|------------------|------------------|------------------|------------------|

GTR II
e|------------------|------------------|------------------|------------------|
B|------------------|------------------|------------------|------------------|
G|------------------|------------------|------------------|------------------|
D|------------------|------------------|------------------|------------------|
A|------------------|------------------|------------------|------------------|
E|------------------|------------------|------------------|------------------|


GTR I
e|------------------|------------------|------------------|------------------|
B|-5-5-5-5----------|------------------|-5-5-5-5----------|------------------|
G|-5-5-5-5--5-5-5-5-|-5-5-5-5--5-5-5-5-|-5-5-5-5--5-5-5-5-|-5-5-5-5------7---|
D|-5-5-5-5--5-5-5-5-|-5-5-5-5--5-5-5-5-|-5-5-5-5--5-5-5-5-|-5-5-5-5------7---|
A|-3-3-3-3--2-2-2-2-|-0-0-0-0--2-2-2-2-|-3-3-3-3--2-2-2-2-|-0-0-0-0--5---5---|
E|------------------|------------------|------------------|----------3-------|

GTR II
e|------------------|------------------|------------------|------------------|
B|------------------|------------------|-13-------12------|-10---------------|
G|------------------|------------------|----12-------12---|-------12--9------|
D|------------------|------------------|-------12-------12|--------------10--|
A|------------------|------------------|------------------|------------------|
E|------------------|------------------|------------------|------------------|



SOLO



VERSE

GTR I
e|------------------|------------------|------------------|------------------|
B|-5-5-5-5-5-5-5-5--|-5-5-5-5-5-5-5-5--|------------------|------------------|
G|-5-5-5-5-5-5-5-5--|-5-5-5-5-5-5-5-5--|-2-2-2-2-2-2-2-2--|-2-2-2-2-2-2-2-2--|
D|-5-5-5-5-5-5-5-5--|-5-5-5-5-5-5-5-5--|-2-2-2-2-2-2-2-2--|-2-2-2-2-2-2-2-2--|
A|-3-3-3-3-3-3-3-3--|-3-3-3-3-3-3-3-3--|-0-0-0-0-0-0-0-0--|-0-0-0-0-0-0-0-0--|
E|------------------|------------------|------------------|------------------|

GTR II
e|------------------|------------------|------------------|------------------|
B|------------------|------------------|------------------|-10b12r10---------|
G|------------------|------------------|----------------9-|------------------|
D|------------------|------------------|------------------|------------------|
A|------------------|------------------|------------------|------------------|
E|------------------|------------------|------------------|------------------|


GTR I
e|------------------|------------------|------------------|------------------|
B|-5-5-5-5-5-5-5-5--|-5-5-5-5-5-5-5-5--|------------------|------------------|
G|-5-5-5-5-5-5-5-5--|-5-5-5-5-5-5-5-5--|-2-2-2-2-2-2-2-2--|-2-2-2-2-2-2-2-2--|
D|-5-5-5-5-5-5-5-5--|-5-5-5-5-5-5-5-5--|-2-2-2-2-2-2-2-2--|-2-2-2-2-2-2-2-2--|
A|-3-3-3-3-3-3-3-3--|-3-3-3-3-3-3-3-3--|-0-0-0-0-0-0-0-0--|-0-0-0-0-0-0-0-0--|
E|------------------|------------------|------------------|------------------|

GTR II
e|------------------|------------------|------------------|------------------|
B|------------------|------------------|------------------|-13b15r13---------|
G|------------------|------------------|---------------12-|------------------|
D|------------------|------------------|------------------|------------------|
A|------------------|------------------|------------------|------------------|
E|------------------|------------------|------------------|------------------|


GTR I
e|------------------|------------------|------------------|------------------|
B|------------------|------------------|------------------|------------------|
G|-5----------------|-2----------------|-5----------------|-2-------------0--|
D|-5----------------|-2----------------|-5----------------|-2-------------X--|
A|-3----------------|-0----------------|-3----------------|-0-------------2--|
E|------------------|------------------|------------------|---------------3--|



CHORUS

GTR I
e|------------------|------------------|------------------|------------------|
B|-5-5-5-5----------|------------------|-5-5-5-5----------|------------------|
G|-5-5-5-5--5-5-5-5-|-5-5-5-5--5-5-5-5-|-5-5-5-5--5-5-5-5-|-5-5-5-5--5-5-5-5-|
D|-5-5-5-5--5-5-5-5-|-5-5-5-5--5-5-5-5-|-5-5-5-5--5-5-5-5-|-5-5-5-5--5-5-5-5-|
A|-3-3-3-3--2-2-2-2-|-0-0-0-0--2-2-2-2-|-3-3-3-3--2-2-2-2-|-0-0-0-0--2-2-2-2-|
E|------------------|------------------|------------------|------------------|

GTR II
e|------------------|------------------|------------------|------------------|
B|------------------|------------------|------------------|------------------|
G|------------------|------------------|------------------|------------------|
D|------------------|------------------|------------------|------------------|
A|------------------|------------------|------------------|------------------|
E|------------------|------------------|------------------|------------------|


GTR I
e|------------------|------------------|------------------|------------------|
B|-5-5-5-5----------|------------------|-5-5-5-5----------|------------------|
G|-5-5-5-5--5-5-5-5-|-5-5-5-5--5-5-5-5-|-5-5-5-5--5-5-5-5-|-5-5-5-5------7---|
D|-5-5-5-5--5-5-5-5-|-5-5-5-5--5-5-5-5-|-5-5-5-5--5-5-5-5-|-5-5-5-5------7---|
A|-3-3-3-3--2-2-2-2-|-0-0-0-0--2-2-2-2-|-3-3-3-3--2-2-2-2-|-0-0-0-0--5---5---|
E|------------------|------------------|------------------|----------3-------|

GTR II
e|------------------|------------------|------------------|------------------|
B|------------------|------------------|-13-------12------|-10---------------|
G|------------------|------------------|----12-------12---|-------12--9------|
D|------------------|------------------|-------12-------12|--------------10--|
A|------------------|------------------|------------------|------------------|
E|------------------|------------------|------------------|------------------|
            
Tabs too difficult? Try these video lessons and learn fast.




comments powered by Disqus
↑ Back to top | Tablatures and chords are parodies/interpretations of the original songs. You may use it for private study, scholarship, research or language learning purposes only