» » »

Velvet Revolver, Bodies Tabs (ver.2)

Artists:  A B C D E F G H I J K L M N O P Q R S T U V W X Y Z # 

Bodies Tabs (ver.2)

Velvet Revolver Tabs
 Rating:
4.6/5 (9 votes)
Bodies lessons Tabs too difficult? Try these video lessons and learn fast
1
                Band:Velvet Revolver
Album:Contraband (Special Edition)

Tunning-eadgbe

Intro:(Dave Kushner)     x4
e:-------------------------|----|
b:-------------------------|----|
g:-------------------------|----|
d:------2--0--------2--0---|-2--|
a:-------------------------|-2--|
e:--2/3------3--2/3------0-|-0--|

Intro:(Slash)                X4
e:------------------------------|
b:-2-2-2-2-2-2-2-2--------------|
g:-2-(4)-(4)-(4)-(4)------------|
d:------------------------------|
a:------------------------------|
e:------------------------------|

Verse:(Slash/Dave)
    B                              x2     F#                            x2
e:------------------------------------|-------------------------------------|
b:------------------------------------|-------------------------------------|
g:--4-4-4-4-4-4-4-4-4-4-4-4-4-4-4-4-4-|-4-4-4-4-4-4-4-4-4-4-4-4-4-4-4-4-4---|
d:--4-4-4-4-4-4-4-4-4-4-4-4-4-4-4-4-4-|-4-4-4-4-4-4-4-4-4-4-4-4-4-4-4-4-4---|
a:--2-2-2-2-2-2-2-2-2-2-2-2-2-2-2-2-2-|-4-4-4-4-4-4-4-4-4-2-2-2-2-2-2-2-2---|
e:------------------------------------|-2-2-2-2-2-2-2-2-2-------------------|

Chorus:
e:---------------------------------------------------------------------------|
b:---------------------------------------------------------------------------|
g:------------------------------------7-7-7-7-7-7-7-7-7-7-7-7-7-7-7----------|
d:--5-5-5-5-5-5-5-5--7-7-7-7-7-7-7-7--7-7-7-7-7-7-7-7-7-7-7-7-7-7-7----------|
-----------------------------------------------------------------------------|
a:--5-5-5-5-5-5-5-5--7-7-7-7-7-7-7-7--5-5-5-5-5-5-5-5-5-5-5-5-5-5-5----------|
e:--3-3-3-3-3-3-3-3--5-5-5-5-5-5-5-5-----------------------------------------|

e:-----------|
b:-----------|
g:-----------|
d:--77777777-|
a:--77777777-|
e:--55555555-|

Verse:
Chorus:

Bridge:Dave Kushner                        "Animal,(animal an animal)"
e:--------------------------------|
b:--------------------------------|
g:--------------------------------|
g:--7-7-7-7-7-7-7-7---------------|
d:--7-7-7-7-7-7-7-7---------------|
a:--5-5-5-5-5-5-5-5-5/777--5/777--|
e:------------------3/555--3/555--|

Slash
                     repeat
e:---------------8-----------|---------------|
b:---------8^(10)-(10)-(8)---|--8^-(10)-hold-|
g:--7~-7~-------------7~-7~--|---------------|
d:---------------------------|---------------|
a:---------------------------|---------------|
e:---------------------------|---------------|

(ONE,TWO,THREE,FOUR)
   (Pick Scr*pe)
a:-x-x-x-x-x-x-x-x-x-x-x-x-x-x-x-x-x-//-|
e:-x-x-x-x-x-x-x-x-x-x-x-x-x-x-x-x-x-//-|

Verse:
chorus:
Outro(Bridge):Slash/Dave


Finnished!
            
Submit corrections

comments powered by Disqus
↑ Back to top | Velvet Revolver Tabs for Bodies. Lyrics for acoustic guitar and electric guitar. 1 Tablatures and chords are parodies/interpretations of the original songs. You may use it for private study, scholarship, research or language learning purposes only