>
 >
It's Torn Away 1

It's Torn Away 1 Guitar Tabs

Veil Of Maya - It's Torn Away 1 chords, tabs, tablatures, lyrics

Guitar lessons | Add/correct | Request | Top 50 tabs Artists:  A B C D E F G H I J K L M N O P Q R S T U V W X Y Z 0-9

It's Torn Away 1 Guitar Tabs – Veil Of Maya

CD, Sheet music, Poster

Do you like It's Torn Away 1? Share with your friends now
TabsTabs v2
alright well i got this tab from AlucardxIx
its all right but i added the 2nd guitar for the intro and the part between 2:24 & 
2:47. That part is fer sure 100 percent correct. play hard. \m/


--------1317131713---------------------------|Gt.1
------15----------15-------------------------|
----14--------------14-----------------------|
---------------------------------------------|
-0-------------------------------------------|
-0-------------------------------------------|

---------------------------------------------|
---------------------------------------------|
---------------------------------------------|
---------------------------------------------|
-----8-578-----7-4-5-7----8-578---------4t---|
--000-0-----000-0-0-0--000-0----8t-5t-7t-----|

---------------------------------------------|
---------------------------------------------|
---------------------------------------------|
---------------------------------1087--------|
-----8-578-----7-4-5-7----8-578------1087-0--|
--000-0-----000-0-0-0--000-0--------------0--|

--------|Gt.2
--------|
--------|
--------|
--0--0--|
--0--0--|

--------------------------------------------|
--------------------------------------------|
--------------------------------------------|
-----------------------1087-----------------|
--0~--00000--0--00000-------1087-0----------|
--0~--00000--0--00000------------0----------|

---------------------------------------------|Gt.1
---------------------------------------------|
---------------------------------------------|
---------------------------------------------|
-----8-578-----7-4-5-7----8-578---------4t---|
--000-0-----000-0-0-0--000-0----8t-5t-7t-----|

----------------------------------------------------|
----------------------------------------------------|
----------------------------------------------------|
----------------------------------------------------|
-----8-578-----7-4-5-7----8-578---333-333-888-888---|
--000-0-----000-0-0-0--000-0------333-333-888-888---|

---------------------------------------------|
---------------------------------------------|
---------------------------------------------|
--8--10-101010--10-101010----7-75-5-5-5------|
--8--8--8-8-8---8--8-8-8----------5-5-5------|
--8--8--8-8-8---8--8-8-8---0------5-5-5------|

2nd time around
---------------------------------------------|
---------------------------------------------|
---------------------------------------------|
--8--10-101010--10-101010----7-75--5-5-5/7---|
--8--8--8-8-8---8--8-8-8---------------------|
--8--8--8-8-8---8--8-8-8---0-----0-----------|

------------------------------------|
------------------------------------|
------------------------------------|
------------------------------------|
-0000--0000--0000--0000-00000-------|
-0000--0000--0000--0000-00000-------|

------------------------------------|
------------------------------------|
------------------------------------|
------------------------------------|
-0000--0000--0000--0000-------------|
-0000--0000--0000--0000----1^-------|

----------------------------------------|
----------------------------------------|
----------------------------------------|
----------------------------------------|
-0000--0000--00000-00000-00000-4-0-1----|
-0000--0000--00000-00000-00000-4-0-1----|

------------------------------------|
------------------------------------|
------------------------------------|
------------------------------------|
-0000------0000--00-00--00000000----|
-0000--1^--0000--00-00--00000000----|

---------------------------------------|
---------------------------------------|
---------------------------------------|
---------------------------------0-----|
---------------------------------0-----|
-00-00-00-00-00-0000-00-00-00----0-----|


---------------------6--5----|
---------------------5--5----|
---------------------7--7----|
-4-5/7--7--5--12-10--8--7----|
-0------3--3--8--8---5--5----|
-0------3--3--8--8---5--5----|


-------------------------|
-------------666---------|
-------------999---------|
-------------777---------|
-000-000-000-888---------|
-000-000-000-------------|

-------------------------|
----------------10-------|
----12----9----9--9-10---|
--10----10--710----------|
-------------------------|
-8----8------------------|

-------------------121312---|
----------------10----------|
----12----9----9------------|
--10----10--710-------------|
----------------------------|
-8----8---------------------|

--------------------------------------------|
--------------------------------------------|
--------------------------------------------|
--------------------------------------0-----|
-000-000-000---000--000-000-000-000---0-----|
-000-000-000---000--000-000-000-000---0-----|

-----------------------|
-----------------------|
-----------------------|
--------------10-------|
-12--10---8787--87-----|
---00--00--------------|

----------------------|
----------------------|
----------------------|
----------------------|
-12--10---8787-5------|
---00--00-------------|

--------------------------|
--------------------------|
--------------------------|
--------------------------|
-12--10--8h10-10----------|
---88--88----8--88--------|

-----------------------|
-----------------------|
-----------------------|
-----------------------|
-8--8--7--7810---------|
--55-55-55-------------|

Every few times they pull this riff off after the 12 and 8 riff. It's not exact, but its 
I guess...

---------------------|
---------------------|
---------------------|
---------------------|
--8-8---7--7--78-----|
-5-5-55--33-33-------|


---------------------|
---------------------|
---------------------|
---------------------|
-0-00-0-00000--------|
-0-00-0-00000--------|


-----------------------------|
-----------------------------|
-----------------------------|
-----------------------------|
-0-00-0-00000-0-00-0-00-00---|
-0-00-0-00000-0-00-0-00-00---|

-----------------------------|
-----------------------------|
-----------------------------|
---75---5--------75-----10---|
-5----8---878--5----878----8-|
-----------------------------|

--------------------------------|
--------------------------------|
--------------------------------|
--------------------------------|
-8-88-8-88888--5-55-5-55555-----|
-8-88-8-88888--5-55-5-55555-----|

---------------------|
---------------------|
---------------------|
---------------------|
-0-00-0-00000--------|
-0-00-0-00000--------|

---------------------------------------|
---------------------------------------|
---------------------------------------|
---------------------------------------|
-8-88-8-88888--5-55-5--1-1--1-1--1-1---|
-8-88-8-88888--5-55-5--1-1--1-1--1-1---|

--------------------------------------|
--------------------------------------|
--------------------------------------|
---7-----3----------------------------|
-8-------7---8-7------------8---------|
----0-00--00----10-7--00-00-7-00-00---|

-----------------------------------------------------|
---------------------------------11--------------10--|
---------------------------------14---------------7--|
----------------------------------------3---------8--|
----------------------------------------7------------|
-12-00-12-14-00-14-15-14-12--0-0----0-0---0-0-0-0----|

*=harmonics
--------------------------------------------------------|
--10-10--1010----------------11-11--1111----------------|
---7--7---7-7-----------------7--7---7-7--7*7*7*7*7*7*--|
---8--8---8-8--7*7*7*7*7*7*---8--8---8-8----------------|
--------------------------------------------------------|
--------------------------------------------------------|

------------------------------------------|
------------10----------------------------|
-------9-10----10-9-10-------9-10---------|
-------------------------------------0----|
-00-00-----------------00-00------0--0----|
-00-00-----------------00-00------0--0----|

--------------------------|
--------------------------|
--------------------------|
---------7----------------|
-----7-8---10-8-78-8------|
-000--0-0-0--0-0--8-------|

------------------------|
------------------------|
------------------------|
------------------------|
----12-10-8----8-7-57---|
-888--8--8--555-5-5-----|

-----------------------------|
----10----10----10----10-----|
----14----14----14----14-----|
-----------------------------|
-000---000---000---000-------|
-000---000---000---000-------|

------------------------|
------------------------|
------------------------|
------------------------|
----12-10-8----8-7-57---|
-888--8--8--555-5-5-----|

----------------------------|
----10---10-----10-----10---|
----14---14-----14-----14---|
----------------------------|
-00---000---000---000-------|
-00---000---000---000-------|

------------------------------------------|
------------------------------------------|
------101010-999-----101010-999-666-777---|
------------------------------------------|
-000--8-8-8--777-000-8-8-8--777-444-555---|
-000-------------000----------------------|


-----------------------------|
-----------------------------|
------101010-999--666--------|
-----------------------------|
-000--8-8-8--777--444--------|
-000-------------------------|

--------------------------|
--------------------------|
--------------------------|
-7-7777--10-10101010------|
-5-5555---8--8-8-8-8------|
-5-5555---8--8-8-8-8------|

The harmony

-----------------------------------------------------|
-----------------------------------------------------|
------141414-121212-----141414-121212-151515-141414--|
-----------------------------------------------------|
-000--121212-101010-000-121212-101010-131313-121212--|
-000----------------000------------------------------|





Comments


Popular Veil Of Maya tabs & chords
It's Not Safe To Swim Today 1 Tabs
It's Torn Away Tabs
Its Not Safe To Swim Today 3 Tabs
Its Not Safe To Swim Today-intro Intro Tabs
Mark The Lines Tabs
Martyrs Tabs
Mowgli Tabs
Mowgli 1 Tabs
The UprisingIntro Tabs
We Bow In Its Aura 2 Tabs


Song lyrics



↑ Back to top | Tablatures and chords are parodies/interpretations of the original songs. You may use it for private study, scholarship, research or language learning purposes only
© 2014 AZChords.com Contact us | Privacy policy | DMCA | Add/correct tabs | Request tabs | Top 50 tabs