» » »

Martrys Bass tabs (ver.1)

Artists:  A B C D E F G H I J K L M N O P Q R S T U V W X Y Z # 

Martrys Bass tabs (ver.1)

Veil Of Maya
Rating:
5/5 (2 votes)

Hard to play? Try these video lessons and learn fast.
                                                veil of maya
                                  martyrs
                                    [id]


------|
------|
------|
--0~--|

--------------------------------------|
--------------------------------------|
--------------------------------------|
--2-1-0-0-0--0-000--0-000-0-0-0--0-0--|

-------------------|
-------------------|
-------------------|
--0-1-2-2--0-1-2---|

--------------------------------------|
--------------------------------------|
--------------------------------------|
--000-0-0--0-000-0-000-0-0-0--0-0-----|

-------------------|
-------------------|
-------------------|
--0-1-2-2--0-1-2---|

-----------------------------------------|
-----------------------------------------|
-----------------------------------------|
--000-0--0-0-0--0-0000000--0-0-0--0-0-0--|
 
-------------------|
-------------------|
-------------------|
--0-1-2-2--0-1-2---|

-----------------------------------------|
-----------------------------------------|
-----------------------------------------|
--000-0--0-0-0--0-0000000--0-0-0--0-0-0--|

----------------------|
----------------------|
----------------------|
--00-00-0000--00-000--|x 5

----------------|
----------------|
----------------|
--00-00-0000-00-|

----------------------|
----------------------|
----------------------|
--00-00-0000--00-000--|x 5

----------------|
----------------|
----------------|
--00-00-0000-00-|

-----|
-----|
-----|
--0--|

wack video tho. i dont like it.
            
Hard to play? Try these video lessons and learn fast. | Correct




comments powered by Disqus
↑ Back to top | Tablatures and chords are parodies/interpretations of the original songs. You may use it for private study, scholarship, research or language learning purposes only