>
 >
It's Torn Away

It's Torn Away Guitar Tabs

Veil Of Maya - It's Torn Away chords, tabs, tablatures, lyrics

Guitar lessons | Add/correct | Request | Top 50 tabs Artists:  A B C D E F G H I J K L M N O P Q R S T U V W X Y Z 0-9

It's Torn Away Guitar Tabs – Veil Of Maya

CD, Sheet music, Poster

Do you like It's Torn Away? Share with your friends now
TabsTabs v2

Here's a video of me playing the song


You'll notice some differences from the tab.
I realized I was playing it wrong when I tabbed this. Not all the harmonies are here either.


Tuning: BF#BEG#C#

t=trem pick


--------1317131713---------------------------|
------15----------15-------------------------|
----14--------------14-----------------------|
---------------------------------------------|
-0-------------------------------------------|
-0-------------------------------------------|

---------------------------------------------|
---------------------------------------------|
---------------------------------------------|
---------------------------------------------|
-----8-578-----7-4-5-7----8-578---------4t---|
--000-0-----000-0-0-0--000-0----8t-5t-7t-----|

---------------------------------------------|
---------------------------------------------|
---------------------------------------------|
---------------------------------1087--------|
-----8-578-----7-4-5-7----8-578------1087----|
--000-0-----000-0-0-0--000-0--------------0--|

---------------------------------------------|
---------------------------------------------|
---------------------------------------------|
---------------------------------------------|
-----8-578-----7-4-5-7----8-578---------4t---|
--000-0-----000-0-0-0--000-0----8t-5t-7t-----|

----------------------------------------------------|
----------------------------------------------------|
----------------------------------------------------|
----------------------------------------------------|
-----8-578-----7-4-5-7----8-578---333-333-888-888---|
--000-0-----000-0-0-0--000-0------333-333-888-888---|

---------------------------------------------|
---------------------------------------------|
---------------------------------------------|
--8--10-101010--10-101010----7-75-5-5-5------|
--8--8--8-8-8---8--8-8-8----------5-5-5------|
--8--8--8-8-8---8--8-8-8---0------5-5-5------|

2nd time around
---------------------------------------------|
---------------------------------------------|
---------------------------------------------|
--8--10-101010--10-101010----7-75--5-5-5/7---|
--8--8--8-8-8---8--8-8-8---------------------|
--8--8--8-8-8---8--8-8-8---0-----0-----------|

------------------------------------|
------------------------------------|
------------------------------------|
------------------------------------|
-0000--0000--0000--0000-00000-------|
-0000--0000--0000--0000-00000-------|

------------------------------------|
------------------------------------|
------------------------------------|
------------------------------------|
-0000--0000--0000--0000-------------|
-0000--0000--0000--0000----1^-------|

----------------------------------------|
----------------------------------------|
----------------------------------------|
----------------------------------------|
-0000--0000--00000-00000-00000-4-0-1----|
-0000--0000--00000-00000-00000-4-0-1----|

------------------------------------|
------------------------------------|
------------------------------------|
------------------------------------|
-0000------0000--00-00--00000000----|
-0000--1^--0000--00-00--00000000----|

---------------------------------------|
---------------------------------------|
---------------------------------------|
---------------------------------0-----|
---------------------------------0-----|
-00-00-00-00-00-0000-00-00-00----0-----|


These are just the chords, I'm sure you can get the rhythms down.

---------------------6--5----|
---------------------5--5----|
---------------------7--7----|
-4-5/7--7--5--12-10--8--7----|
-0------3--3--8--8---5--5----|
-0------3--3--8--8---5--5----|


-------------------------|
-------------666---------|
-------------999---------|
-------------777---------|
-000-000-000-888---------|
-000-000-000-------------|

-------------------------|
----------------10-------|
----12----9----9--9-10---|
--10----10--710----------|
-------------------------|
-8----8------------------|

-------------------121312---|
----------------10----------|
----12----9----9------------|
--10----10--710-------------|
----------------------------|
-8----8---------------------|

--------------------------------------------|
--------------------------------------------|
--------------------------------------------|
--------------------------------------0-----|
-000-000-000---000--000-000-000-000---0-----|
-000-000-000---000--000-000-000-000---0-----|

----------------------|
----------------------|
----------------------|
-------------10-------|
-12--10--8787--87-----|
---00--0--------------|

---------------------|
---------------------|
---------------------|
---------------------|
-12--10--8787-5------|
---00--0-------------|

--------------------------|
--------------------------|
--------------------------|
--------------------------|
-12--10--8h10-10----------|
---88--88----8--88--------|

-----------------------|
-----------------------|
-----------------------|
-----------------------|
-8--8--7--7810---------|
--55-55-55-------------|

Every few times they pull this riff off after the 12 and 8 riff. It's not exact, but its 
I guess...

---------------------|
---------------------|
---------------------|
---------------------|
--8-8---7--7--78-----|
-5-5-55--33-33-------|


---------------------|
---------------------|
---------------------|
---------------------|
-0-00-0-00000--------|
-0-00-0-00000--------|


-----------------------------|
-----------------------------|
-----------------------------|
-----------------------------|
-0-00-0-00000-0-00-0-00-00---|
-0-00-0-00000-0-00-0-00-00---|


Best I can do on the lead riff, It sounds right to me.
----------------------------|
----------------------------|
----------------------------|
---75--5-------75-----------|
-5---8--878--5---8-787878---|
----------------------------|

--------------------------------|
--------------------------------|
--------------------------------|
--------------------------------|
-8-88-8-88888--5-55-5-55555-----|
-8-88-8-88888--5-55-5-55555-----|

---------------------|
---------------------|
---------------------|
---------------------|
-0-00-0-00000--------|
-0-00-0-00000--------|

---------------------------------------|
---------------------------------------|
---------------------------------------|
---------------------------------------|
-8-88-8-88888--5-55-5--1-1--1-1--1-1---|
-8-88-8-88888--5-55-5--1-1--1-1--1-1---|

--------------------------------------|
--------------------------------------|
--------------------------------------|
---7-----3----------------------------|
-8-------7---8-7------------8---------|
----0-00--00----10-7--00-00-7-00-00---|

--------------------------------------------------|
---------------------------------11---------------|
---------------------------------14---------------|
----------------------------------------3---------|
----------------------------------------7---------|
-12-00-12-14-00-14-15-14-12--0-0----0-0---0-0-0---|

*=harmonics

Another part I'm not sure on but it sounds good to me. You can always move them around 
the neck though, I just like playing it this way.
-------------------------------------|
-------------------------------------|
-14--14-14-14-14---------------------|
-12--12-12-12-12---7*7*7*7*7*7*------|
-13--13-13-13-13---------------------|
-------------------------------------|

---------------------------------|
---------------------------------|
-15-15-15-15---7*7*7*7*7*7*------|
-12-12-12-12---------------------|
-13-13-13-13---------------------|
---------------------------------|

Again, move as you please.
------------------------------------------|
------------------------------------------|
------------14----------------------------|
-------14-15--15-14-15-------14-15---0----|
-00-00-----------------00-00------0--0----|
-00-00-----------------00-00------0--0----|

--------------------------|
--------------------------|
--------------------------|
---------7----------------|
-----7-8---10-8-78-8------|
-000--0-0-0--0-0--8-------|

------------------------|
------------------------|
------------------------|
------------------------|
----12-10-8----8-7-57---|
-888--8--8--555-5-5-----|

-----------------------------|
----10----10----10----10-----|
----14----14----14----14-----|
-----------------------------|
-000---000---000---000-------|
-000---000---000---000-------|

------------------------|
------------------------|
------------------------|
------------------------|
----12-10-8----8-7-57---|
-888--8--8--555-5-5-----|

----------------------------|
----10---10-----10-----10---|
----14---14-----14-----14---|
----------------------------|
-00---000---000---000-------|
-00---000---000---000-------|

------------------------------------------|
------------------------------------------|
------101010-999-----101010-999-666-777---|
------------------------------------------|
-000--8-8-8--777-000-8-8-8--777-444-555---|
-000-------------000----------------------|


-----------------------------|
-----------------------------|
------101010-999--666--------|
-----------------------------|
-000--8-8-8--777--444--------|
-000-------------------------|

--------------------------|
--------------------------|
--------------------------|
-7-7777--10-10101010------|
-5-5555---8--8-8-8-8------|
-5-5555---8--8-8-8-8------|

The harmony

-----------------------------------------------------|
-----------------------------------------------------|
------141414-121212-----141414-121212-151515-141414--|
-----------------------------------------------------|
-000--121212-101010-000-121212-101010-131313-121212--|
-000----------------000------------------------------|





Comments


Popular Veil Of Maya tabs & chords
Conquer Tabs
Crawl Back Tabs
Dark Passenger Tabs
Its Not Safe To Swim Today 5 Tabs
Martyrs Tabs
Mowgli Tabs
Mowgli 1 Tabs
Pillars Intro Tabs
The Uprising Intro Tabs
Unbreakable Tabs


Song lyrics



↑ Back to top | Tablatures and chords are parodies/interpretations of the original songs. You may use it for private study, scholarship, research or language learning purposes only
© 2014 AZChords.com Contact us | Privacy policy | DMCA | Add/correct tabs | Request tabs | Top 50 tabs