>
 >
Rude Mood Live

Rude Mood Live Guitar Tabs

Vaughan Stevie Ray - Rude Mood Live chords, tabs, tablatures, lyrics

Guitar lessons | Add/correct | Request | Top 50 tabs Artists:  A B C D E F G H I J K L M N O P Q R S T U V W X Y Z 0-9

Rude Mood Live Guitar Tabs – Vaughan Stevie Ray

CD, Sheet music, Poster

Do you like Rude Mood Live? Share with your friends now
TabsTabs v2
Rude Mood by Stevie Ray Vaughan
       As heard on " Stevie Ray Vaughan and Double Trouble
		Live At Carnegie Hall".

Tune down one half step.

Hammer on: h
Pull off: p
Slide up: /
Slide down: \
Palm mute: p.m.~~~~~~

Intro:
 p.m.  p.m.    p.m.   p.m.
e---------------------------------------------------------------------|
B-0-----0-------0------0------0---------------------------------------|
G-0-----0-------0------0------0---------------------------------------|
D-0-----0-------0------0------0----2----------------------------------|
A------------------2-------4------------------2---4-------------------|
E----0------4----------------------------4----------------------------|

Repeat the above again. Then move it up a string.

e---------------------------------------------------------------------|
B---------------------------------------------------------------------|
G----------------------------------2----------------------------------|
D-----------------2--------4-------------------2---4------------------|
A---0------4------------------------------4---------------------------|
E---------------------------------------------------------------------|

Then move back to the low E again.

e------------------------------------------I--------------------------|
B------------------------------------------I--------------------------|
G------------------------------------------I--------------------------|
D------------------------2-----------------I--------------------------|
A-------------2----4--------------2-----4--I-------------0--2--0------|
E----0----4-------------------4------------I---0--2--4----------------|

e---------------------------------------------------------------------|
B---------------------------------------------------------------------|
G---------------------------------------------------------------------|
D--------------------------2------------------------------------------|
A-------------------2--4--------2--4----------------------------------|
E----4--2--0----4-------------4---------------------------------------|


e---0-0-0-0-0-0-0-0-0-0-0-0/-7-7-7-7-7-7-7-7-7-7-7-7---0---3--0-------|
B---5-5-5-5-5-5-5-5-5-5-5-5/-8-8-8-8-8-8-8-8-8-8-8-8---5--------3--0--|
G---------------------------------------------------------------------|
D---------------------------------------------------------------------|
A---------------------------------------------------------------------|
E---------------------------------------------------------------------|

e-------------------I-------------------------------------------------|
B-------------------I-------------------------------------------------|
G---2b--0---0--2-0--I-------------------------------------------------|
D---------2---------I----------2----------------------------------2---|
A-------------------I------2-4-------2----------0-2-0---------2-4-----|
E-------------------I--0-4-------0-4------0-2-4-------4-2-0-4---------|
      p.m.
e------0-------12-----12------12------12-------12-----9---7-4-5-4-2-0-|
B------0--------------------------------------------------------------|
G------0--------------------------------------------------------------|
D------0--------------------------------------------------------------|
A----2----------------------------------------------------------------|
E--4-------12-----12------12------12-------12------9----7-4-5-4-2-0---|

e---------------------------------------------------------------------|
B------------2--------------------------------------------------------|
G------------2--------------------------------------------------------|
D-------2-4--2------------4b-2---2--0-2------------2-2----------------|
A---0-4--------------2-4-------4----------------2--------2-4----------|
E----------------0-4----------------------000-4--------4--------------|

e--2/4--0---------0---------0-0-2/5-0------------------|
B--0------0-0-2/5---0-0-2/5-----------2----------------|
G------------------------------------------------------|
D------------------------------------------------------|
A------------------------------------------------------|
E------------------------------------------------------|

e--2/4--0---------0---------0-0-2/5-0------------------|
B--0------0-0-2/5---0-0-2/5-----------2----------------|
G------------------------------------------------------|
D------------------------------------------------------|
A------------------------------------------------------|
E------------------------------------------------------|

e--4\2-0---0-4\2-0---0-4\2-0---0-4\2-0-----------------------------|
B--------2---------2---------2---------2---------------------------|
G----------------------------------------2b-0-2b-0--------4b-4b-2--|
D--------------------------------------------------2-0-2-4---------|
A------------------------------------------------------------------|
E------------------------------------------------------------------|

e-------------------------------------------------|
B-------------------------------------------------|
G-------------------------------------------------|
D------------4b-2---2------------2----------------|
A----------2------4---2------2-4---4-2-2/4--------|
E--0-0-0-4---------------0-4----------------------|

e---12-12-12-12-12--12-12---12-12-12-12-12--12-12------|
B---12-12-12-12-12--12-12---12-12-12-12-12--12-12------|
G---12-12-12-12-12--12-12---12-12-12-12-12--12-12------|
D---12-12-12-12-12--12-12---12-12-12-12-12--12-12------|
A---12-12-12-12-12--12-12---12-12-12-12-12--12-12------|
E------------------------------------------------------|

e---12-12-12-12-12--12-12---12-12-12-12-12--12-12-----|
B---12-12-12-12-12--12-12---12-12-12-12-12--12-12-----|
G---12-12-12-12-12--12-12---12-12-12-12-12--12-12-----|
D---11-11-11-11-11--11-11---12-12-12-12-12--12-12-----|
A---12-12-12-12-12--12-12---12-12-12-12-12--12-12-----|
E-----------------------------------------------------|

e--15-15-15-15-15--17-17-17---15--12---3-0-----------------|
B--15-15-15-15-15--17-17-17---15--12-------3-0-------------|
G--15-15-15-15-15--17-17-17---15--12----------2-0-2b-0-----|
D--15-15-15-15-15--17-17-17---15--12-------------------2---|
A--15-15-15-15-15--17-17-17---15--12-----------------------|
E----------------------------------------------------------|

The End! I didn't put them in order, exactly. But there is every basic
progression in there. I don't know if it's all correct cause I play it

Thank you!
          Jason

______________________________________________________





Comments


Popular Vaughan Stevie Ray tabs & chords
Couldn't Stand The Weather 1 Bass Tabs
Crossfire Bass Tabs
Cold Shot 1 Tabs
Hug You Squeeze You Tabs
Hug You Squeeze You 1 Tabs
Im Crying Tabs
Lovestruck 1 Tabs
Pride And Joy 1 Tabs
Rivera Paradise Tabs
The House Is Rocking Tabs


Song lyrics



↑ Back to top | Tablatures and chords are parodies/interpretations of the original songs. You may use it for private study, scholarship, research or language learning purposes only
© 2014 AZChords.com Contact us | Privacy policy | DMCA | Add/correct tabs | Request tabs | Top 50 tabs