>
 >
Rude Mood 1

Rude Mood 1 Guitar Tabs

Vaughan Stevie Ray - Rude Mood 1 chords, tabs, tablatures, lyrics

Guitar lessons | Add/correct | Request | Top 50 tabs Artists:  A B C D E F G H I J K L M N O P Q R S T U V W X Y Z 0-9

Rude Mood 1 Guitar Tabs – Vaughan Stevie Ray

CD, Sheet music, Poster

Do you like Rude Mood 1? Share with your friends now
TabsTabs v2
Here is my first attempt in transcribing a SRV song: 'Rude Mood', the
original version from the 'Texas Flood' album. The strumming pattern at
the beginning of the song and repeated throughout is harder to transcribe
than to play (at least for me), but it gives an idea of what SRV plays;
anyway, it is not the hardest part of the song. Listen to 'Pride and
Joy' off the same album if you want to hear something similar in a slower
tempo.  Also, remember to tune down one half step, as always with SRV.

Please feel free to send any corrections, improvements or comments to
the adress above.

----x---x---x----x---x----x---x---x-----x---x---x---x---x---x---x---x---------
----x---x---x----x---x-2--x---x---x-----x---x---x---x---x-2-x---x---x---------
----x---x---x--2-x-4-x----x---x-2-x-4---x---x---x-2-x-4-x---x---x-2-x-4-------
------0---3-----------------3-------------0---3---------------3---------------
 00:00
---X---x---x---x---x---x---x---x----------------------------------------------
---x---x---x---x---x-2-x---x---x-----x---x---x---x---x-----x---x---x----------
---x---x---x-2-x-4-x---x---x-2-x-4---x---x---x---x---x-2---x---x---x----------
-----0---3---------------3-----------x---x---x-2-x-4-x-----x---x-2-x-4--------
---------------------------------------0---3-----------------3----------------

----------------------------------2-------------------------------------------
----------------------------2p0---1-------------------------------------------
--x---0-1-2-0-----------2-4-----2---------------------------------------------
--2-4---------4-2-0--/4-------------------------------------------------------

-/12-12-12-12-12-12-12-12-12-12-12-12-12---9----------------------------------
---------------------------------------------12-9---------------------12------
---------------------------------------------------12-11-9----9-11b13---------
-----------------------------------------------------------11-----------------

 00:10
-------13r11p9------9-9------9-9------9-9-------------------------------------
---------------11-9-----11-9-----11-9-----11-9--------------------------------
-----------------------------------------------9\7-----7----------------------
---------------------------------------------------9-7---7\0------------------

--0-----------------------------2---------------------------------------------
----2/4-0-2p0-2p0-------------2-----3-----2--x---x---x---x----------2---------
------------------2-0-----1---------2-----1--x---x---x---x---3p0----1---------
----------------------2-2---x-----3---2-2----x---x-----2---4-----2------------
-----------------------------------------------0---3--------------------------

----x---x---x----x---x----x---x---x-----x---x---x---x---x---x---x---x---------
----x---x---x----x---x-2--x---x---x-----x---x---x---x---x-2-x---x---x---------
----x---x---x--2-x-4-x----x---x-2-x-4---x---x---x-2-x-4-x---x---x-2-x-4-------
------0---3-----------------3-------------0---3---------------3---------------

---X---x---x---x---x---x---x---x----------------------------------------------
---x---x---x---x---x-2-x---x---x-----x---x---x---x---x-----x---x---x----------
---x---x---x-2-x-4-x---x---x-2-x-4---x---x---x---x---x-2---x---x---x----------
-----0---3---------------3-----------x---x---x-2-x-4-x-----x---x-2-x-4--------
---------------------------------------0---3-----------------3----------------

----------------------------------2-------------------------------------------
----------------------------2p0---1-------------------------------------------
--x---0-1-2-0-----------2-4-----2---------------------------------------------
--2-4---------4-2-0--/4-------------------------------------------------------

---0-----0-0-----0-0-0-0-0-0-2/4---0-----0-0-----0-0-----0-0-2-2--------------
-----2p0-----2p0---------------------2p0-----2p0-----2p0----------------------

 00:32

-0------0-0-----0-0-----0-0-2/4-0------0------------------------0-------------
---2p0------2p0-----2p0-----------2p0----3p0--------------------0-------------
---------------------------------------------2/4-3/4-2p0---0p1----------------
---------------------------------------------------------2--------------------

--------------------2---------------------------------------------------------
------------------2-----3-----2--x---x---x---x----------2---------------------
--------------1---------2-----1--x---x---x---x---3p0----1---------------------
------------2---x-----3---2-2----x---x-----2---4-----2------------------------
-----------------------------------0---3--------------------------------------

-----------------------------------------------0------------0--3-0------------
--2/3-3-3-3-3-3-3-3-3-3-3-3-3-3-3-3------------0------------0------3-0-----0--
--3/4-4-4-4-4-4-4-4-4-4-4-4-4-4-4-4--2p0---0h1----2p0---0h1------------2b4----
-----------------------------------------2------------2-----------------------

----------------------------------------0-------------------------------------
-----0------------3---3p0---0-----------0-------------------------------------
-2/4---2p0---0h1----------2---2p0---0h1---------------------------------------
-----------0----------------------2-------------------------------------------

--------------------2---------------------------------------------------------
------------------2-----3-----2--x---x---x---x----------2---------------------
--------------1---------2-----1--x---x---x---x---3p0----1---------------------
------------2---x-----3---2-2----x---x-----2---4-----2------------------------
-----------------------------------0---3--------------------------------------

---0-0-0-0-0-0-0-0---/7-7-7-7-7-7-7-7-7---/10-10-10-10-10-10-10-10------------
---5-5-5-5-5-5-5-5---/8-8-8-8-8-8-8-8-8---/12-12-12-12-12-12-12-12------------

 00:54

--/12-12-12-12-12-12-12-12----12-12-12-12-12-12-12-12--15-12---------------0--
--/14-14-14-14-14-14-14-14----12-12-12-12-12-12-12-12--------15-12------------

--------------------0---------------------------------------------------------
-3p0----------------0---------------------------------------------------------
-----0h2-2-0---0h1------------------------------------------------------------
-------------2----------------------------------------------------------------

--------------------2---------------------------------------------------------
------------------2-----3-----2--x---x---x---x----------2---------------------
--------------1---------2-----1--x---x---x---x---3p0----1---------------------
------------2---x-----3---2-2----x---x-----2---4-----2------------------------
-----------------------------------0---3--------------------------------------

-12-12-12-12vv--/12--/9-/7-\4-4-3-2--------------------3-3-3------------------
-------------------------------------x--x---x---x---x--2-2-2------------------
-------------------------------------x--x---x---x---x--2-2-2-x---x---x---x----
-------------------------------------x--x---x-2-x-4-x--------x---x---x---x----
--------------------------------------0---3------------------x---x---x-2-x-4--

 1:05

-----------0------------------------------------------------------------------
-2---------0------------------------------------------------------------------
-2p0---0h1--------------------------------------------------------------------
-----2------------------------------------------------------------------------

--------------------2---------------------------------------------------------
------------------2-----3-----2--x---x---x---x----------2---------------------
--------------1---------2-----1--x---x---x---x---3p0----1---------------------
------------2---x-----3---2-2----x---x-----2---4-----2------------------------
-----------------------------------0---3--------------------------------------

----------------------0-----------------------0--3-0------------------------0-
-2p0---0----2p0---0---0--2p0---0----2p0---0---0------3-0-----3---3------------
-2p0---0h1--2p0---0h1----2p0---0h1--2p0---0h1------------2/4---2/4-2p0---0h1--
-----2----------2------------2----------2------------------------------2------

 1:15

-----------0------------------------------------------------------------------
-2p0---0h1---2p0-2p0---------2----3-----2-x---x---x---x---------2-------------
-----2---------------2p0---1------2-----1-x---x---x---x---3p0---1-------------
-------------------------2------3---2-2---x---x-----2---4-----2---------------
--------------------------------------------0---3-----------------------------

-11/12-12-11/12--11/12-12-11/12--11/12-12-11/12-12-12-11/12-12-12-11/12-12-12-
-12/13-13-12/13--12/13-13-11/12--12/13-13-12/13-13-13-12/13-13-13-12/13-13-13-

 1:27

-3-0-----------------------0----------------------0---------------------------
-----3-0-----3----------------3-----------------------------------------------
---------2/4---4-2p0---0h1------2p0---0-2p0---0h1-----------------------------
---------------------2--------------2-------2---------------------------------

--------------------2---------------------------------------------------------
------------------2-----3-----2--x---x---x---x----------2---------------------
--------------1---------2-----1--x---x---x---x---2p0----1---------------------
------------2---x-----3---2-2----x---x-----2---4-----2------------------------
-----------------------------------0---3--------------------------------------

--------------0-0----7-7-7----10-10-10-10--------12-------12---------12-------
-----3-3--3/5-5-5--5/8-8-8----12-12-12-12-----------15-12----15b17vv----15-12-
-2/4-4-4------------------------------------11/13-----------------------------

 1:38

-------------0------------------0---------2-----------------------------------
---------------3p0------------------------------------------------------------
-3\2p0---0h1-------0--2p0---0h1---------2-----3-----2-x---x---x---x---------2-
-------2------------------2---------1---------2-----1-x---x---x---x---2p0---1-
----------------------------------2---x-----3---2-2---x---x-----2---4-----2---
--------------------------------------------------------0---3-----------------

--12-12-12-12---12-12-12-12---12--9--7--/4-4-3-3-2-0-----------------3-3-3----
--12-12-12-12---12-12-12-12---12-------------------------------------2-2-2----
--13-13-13-13---13-13-13-13--------------------------x---x---x---x---2-2-2----
--14-14-14-14---14-14-14-14--------------------------x---x---x-2-x-4----------
-------------------------------------------------------0---3------------------

 1:49

----------------------------0-------2-----------------------------------------
-x---x---x---x----2p0---0h1-------2-----3-----2--x---x---x---x---------2------
-x---x---x---x--------2---------1-------2-----1--x---x---x---x---2p0---1------
-x---x---x-2-x-4--------------2-------3---2-2----x---x---x-2-x-4-----2--------
---0---3-------------------------------------------0---3----------------------

--------------------------------------0---------------------------------------
----------------------------------------3-------------------------------------
-----------------------------0--2-0h1-----2b4-2-0-----------------------------
-----------0-1-2-0-----------2------------------------------------------------
-----0-1/2---------2-1-0------------------------------------------------------
--/3---------------------3-0--------------------------------------------------

 2:00

------------------------------------0-----------------------------------------
--------------------------------------3-----0---------------------------------
------------------------------2-0h1-----2b4---4r2-2---------------------------
-----------0-1-2-0-------0-2--------------------------------------------------
-----0-1/2---------2-1-0------------------------------------------------------
--/3--------------------------------------------------------------------------

----------------------------------------0---0-0-0-0----0-0-------------0------
------------------------------------------3/5-5-5-5--3/5-5--------------------
----------------------------------2-0h1--------------------2p0-0-0-0h1--------
------------0-1-2-0-------------2---------------------------------------------
-0----0-1/2---------2-1-0---0-------------------------------------------------
---/3---------------------3---3-----------------------------------------------

------------------0----3b-0---------------------------------------------------
----------------------------3-0--2/3-3----------------------------------------
--2p0---2p0---0h1----------------3/4-4-2p0---0h1-2-2p0---0h1-2p0-2p0----------
------0-----0------------------------------2-----------2-------------2p0------

-------------------2----------------------------------------------------------
-----------------2-----3-----2--x---x---x---x----------2----------------------
--------------1--------2-----1--x---x---x---x---3p0----1----------------------
------------2--------3---2-2----x---x-----2---4-----2-------------------------
----------------------------------0---3---------------------------------------

----------------------------9--7-7-7-9/12-12-12-12-12-12-12-12-12-12-12-12----
-8b9-8b9--8b9-8b9--8b9-8b9--8--8-8-8------------------------------------------

 2:21

-12-12-12-----0/5-3-----------------------------------------------------------
--------------------3-0-3-----0-----------------------------------------------
--------------------------2/4---\2p0----2p0-----------------------------------
-------------------------------------2------2p0-------------------------------

--------------------2---------------------------------------------------------
------------------2-----3-----2--x---x---x---x----------2---------------------
--------------1---------2-----1--x---x---x---x---2p0----1---------------------
------------2---x-----3---2-2----x---x-----2---4-----2------------------------
-----------------------------------0---3--------------------------------------

-2-2-4-2--2-2-4-2--2-2-4-2--2-2-4-2--2-2-4-2--2-2-4-2--2-2-4-2--2-2-4-2-------
-0-0-0-0--0-0-0-0--0-0-0-0--0-0-0-0--0-0-0-0--0-0-0-0--0-0-0-0--0-0-0-0-------

 2:33

-----------------2------------------------------------------------------------
-2---x---x---x---2---x---x----x-----------------------------------------------
-2---x---x-2-x-4-----x-2-x-4--x-----------------------------------------------
-0-0---3-----------3----------x-2-2-4-2--2-2-4-2--2-2-4-2--2-2-4-2------------
--------------------------------0-0-0-0--0-0-0-0--0-0-0-0--0-0-0-0------------

--------------------2---------------------------------------------------------
------------------2-----3-----2--x---x---x---x----------2---------------------
--------------1---------2-----1--x---x---x---x---3p0----1---------------------
------------2---x-----3---2-2----x---x-----2---4-----2------------------------
-----------------------------------0---3--------------------------------------

-2-2-4-2--2-2-4-2--2-2-4-2--2-2-4-2--2-2-4-2--2-2-4-2--2-2-4-2--2-2-4-2-------
-0-0-0-0--0-0-0-0--0-0-0-0--0-0-0-0--0-0-0-0--0-0-0-0--0-0-0-0--0-0-0-0-------

-----------------2------------------------------------------------------------
-2---x---x---x---2------------------------------------------------------------
-2---x---x-2-x-4---4--2--4----------------------------------------------------
-0-0---3-----------0--0--0--------2-2-4-2--2-2-4-2--2-2-4-2--2-2-4-2----------
----------------------------------0-0-0-0--0-0-0-0--0-0-0-0--0-0-0-0----------

--------------------2---------------------------------------------------------
------------------2-----3-----2--x---x---x---x----------2---------------------
--------------1---------2-----1--x---x---x---x---3p0----1---------------------
------------2---x-----3---2-2----x---x-----2---4-----2------------------------
-----------------------------------0---3--------------------------------------

--0-----0--------0---0-----0--------0---3--3--3--3-3-------3--3--3--3-3-------
--0-x-x-0--2p0---0---0-x-x-0--2p0---0---2--2--2--2-2-------2--2--2--2-2-------
--1-x-x-1--2p0---1---1-x-x-1--2p0---1---2--2--2--2-2-------2--2--2--2-2-------
--2-x-x-2--2---2-2---2-x-x-2--2---2-2---2--2--2--2-2-------2--2--2--2-2-------
---------------------------------------------------------0------------------0-
-----------------------------------------------------0/3----------------0/3---

 2:55

--3--3--3--3-3------2---2-----------------------------------------------------
--2--2--2--2-2----------------------------------------------------------------
--2--2--2--2-2----2---2-----x---x---x----x---x----x---x---x-----x---x---x-----
--2--2--2--2-2----1---------x---x---x----x---x-2--x---x---x-----x---x---x-----
----------------2-----------x---x---x--2-x-4-x----x---x-2-x-4---x---x---x-2---
------------------------------0---3-----------------3-------------0---3-------

-----------------------x---x---x---x---x---x---x---x--------------------------
-x---x---x---x---x-----x---x---x---x---x-2-x---x---x-----x---x---x---x---x----
-x---x-2-x---x---x-----x---x---x-2-x-4-x---x---x-2-x-4---x---x---x---x---x-2--
-x-4-x---x---x-2-x-4-----0---3---------------3-----------x---x---x-2-x-4-x----
-----------3-----------------------------------------------0---3--------------

-x---x---x-------------------------------------2------------------------------
-x---x---x-------------------------------2p0---1------------------------------
-x---x-2-x-4---x---0-1-2-0-----------2-4-----2--------------------------------
---3-----------2-4---------4-2-0--/4------------------------------------------

--0---0-2/4---0-----2/4---0-----2/4--4\2-0-2/4--2-2-2-2-2-2-2/4-2-0-0-0--2-4--
----2-----------2p0---------2p0-----------------------------------------------

 3:16

-7-7-7--5-5-5-5--3b-p0--------------------------------------------------------
-----------------------3-0-----0----------------------------------------------
---------------------------2/4---4\2-p0---2p1---------------------------------
----------------------------------------2-----2-0-------------2-2-2-2-2--2----
--------------------------------------------------2-1-0-------x-x-x-x-x--x----
--------------------------------------------------------3-0---0-0-0-0-0--0----

                                                              3:27

------------------------2-2p0---2--2-2p0---2--2-2p0---2--2-2p0---2--2-2p0---2-
-0-2--2-2-2-2-2--2-0-2--------2----------2----------2----------2----------2---
------x-x-x-x-x--x------------------------------------------------------------
------0-0-0-0-0--0------------------------------------------------------------

------------3-2-0---3-2-0------3-2-0--3-2-0---3-5-3-5-5-5---3-5-3-5-5-5-------
------------2-2-0---2-2-0------2-2-0--2-2-0---2-2-2-2-2-2---2-2-2-2-2-2-------
-2-2p0---2------------------------------------2-2-2-2-2-2---2-2-2-2-2-2-------
-------2--------------------------------------2-2-2-2-2-2---2-2-2-2-2-2-------
-----------------------------0------------------------------------------------
--------------------------3b--------------------------------------------------

--17--17-17-17--17--17-17-17-17-17--17--17-17-17--17-17-17-17-17--17--17-17---
--14--14-14-14--14--14-14-14-14-14--14--14-14-14--14-14-14-14-14--14--14-14---
--14--14-14-14--14--14-14-14-14-14--14--14-14-14--14-14-14-14-14--14--14-14---
--14--14-14-14--14--14-14-14-14-14--14--14-14-14--14-14-14-14-14--14--14-14---

-17--17-17-17-17-17------2---2------------------------------------------------
-14--14-14-14-14-14-----------------------------------------------------------
-14--14-14-14-14-14----2---2--------------------------------------------------
-14--14-14-14-14-14-----------------------------------------------------------

---x---x---x----x---x----x---x---x-----x---x---x------------------------------
---x---x---x----x---x-2--x---x---x-----x---x---x------------------------------
---x---x---x--2-x-4-x----x---x-2-x-4---x---x---x-2----------------------------
-----0---3-----------------3-------------0---3--------------------------------

 3:52

-----------------------x---x---x---x---x---x---x---x--------------------------
-x---x---x---x---x-----x---x---x---x---x-2-x---x---x-----x---x---x---x---x----
-x---x-2-x---x---x-----x---x---x-2-x-4-x---x---x-2-x-4---x---x---x---x---x-2--
-x-4-x---x---x-2-x-4-----0---3---------------3-----------x---x---x-2-x-4-x----
-----------3-----------------------------------------------0---3--------------

-x---x---x-------------------------------------2------------------------------
-x---x---x-------------------------------2p0---1------------------------------
-x---x-2-x-4---x---0-1-2-0-----------2-4-----2--------------------------------
---3-----------2-4---------4-2-0--/4------------------------------------------

-12-12--12-12-12--12--12-12-12--12-12-12--12----12--12-12-12--12-12-12--------
-12-12--12-12-12--12--12-12-12--12-12-12--12----12--12-12-12--12-12-12--------
-13-13--13-13-13--13--13-13-13--13-13-13--13----12--12-12-12--12-12-12--------
-14-14--14-14-14--14--14-14-14--14-14-14--14----11--11-11-11--11-11-11--------

 4:03

-12--12-12-12--12-12-12---14--14-14-14--15-14--12\-12\-12\-12\----------------
-12--12-12-12--12-12-12---14--14-14-14--15-14--12\-12\-12\-12\----------------
-13--13-13-13--13-13-13---14--14-14-14--15-14---------------------------------
-14--14-14-14--14-14-14---13--13-13-13--14-13---------------------------------

-12-12--12-12-12--12--12-12-12--12-12-12--12----12--12-12-12--12-12-12--------
-12-12--12-12-12--12--12-12-12--12-12-12--12----12--12-12-12--12-12-12--------
-13-13--13-13-13--13--13-13-13--13-13-13--13----12--12-12-12--12-12-12--------
-14-14--14-14-14--14--14-14-14--14-14-14--14----11--11-11-11--11-11-11--------

-12--12-12-12--12-12-12---14--14-14-14--15-14--12----0---0-2/4-4-2p0---3------
-12--12-12-12--12-12-12---14--14-14-14--15-14--12------2-----3-3-----2-2------
-13--13-13-13--13-13-13---14--14-14-14--15-14---------------------------------
-14--14-14-14--14-14-14---13--13-13-13--14-13---------------------------------

------------0---------------------------------------------3-------|-----------
--0-2p0-3-----3-0-----3-----------------------------------3-------|-----------
------------------2/4---\2p0---2p0------------------------1-------|-----------
-----------------------------2-----2p0---------------2----2-------|-----------
---------------------------------------2-0---0h1------------------|-----------
-------------------------------------------3-----3-0---0----------|-----------

                                                          4:33





Comments


Popular Vaughan Stevie Ray tabs & chords
Couldn't Stand The Weather Bass Tabs
Change It Tabs
I Wanna Testify Tabs
Life By The Drop Tabs
Lookin Out My Window 1 Tabs
Mary Had A Little Lamb Tabs
Scuttle Buttin Tabs
Testify 1 Tabs
Tick Tock Tabs
Voodoo Chile (Slight Return) Tabs


Song lyrics



↑ Back to top | Tablatures and chords are parodies/interpretations of the original songs. You may use it for private study, scholarship, research or language learning purposes only
© 2014 AZChords.com Contact us | Privacy policy | DMCA | Add/correct tabs | Request tabs | Top 50 tabs