» » »

Rude Mood Tabs (ver.1)

Artists:  A B C D E F G H I J K L M N O P Q R S T U V W X Y Z # 

Rude Mood Tabs (ver.1)

Vaughan Stevie Ray
Rating:
0/5 (0 votes)

Hard to play? Try these video lessons and learn fast.
                Rude Mood by Stevie Ray Vaughan
       As heard on " Stevie Ray Vaughan and Double Trouble
		Live At Carnegie Hall".                           

Tune down one half step. 

Hammer on: h
Pull off: p
Slide up: /
Slide down: \
Palm mute: p.m.~~~~~~

Intro:
 p.m.  p.m.    p.m.   p.m.  
e---------------------------------------------------------------------
B-0-----0-------0------0------0---------------------------------------
G-0-----0-------0------0------0---------------------------------------
D-0-----0-------0------0------0----2----------------------------------
A------------------2-------4------------------2---4-------------------
E----0------4----------------------------4----------------------------

Repeat the above again. Then move it up a string.
                       
e---------------------------------------------------------------------
B---------------------------------------------------------------------
G----------------------------------2----------------------------------
D-----------------2--------4-------------------2---4------------------
A---0------4------------------------------4---------------------------
E---------------------------------------------------------------------

Then move back to the low E again.

e------------------------------------------I--------------------------
B------------------------------------------I--------------------------
G------------------------------------------I--------------------------
D------------------------2-----------------I--------------------------
A-------------2----4--------------2-----4--I-------------0--2--0------
E----0----4-------------------4------------I---0--2--4----------------

e---------------------------------------------------------------------
B---------------------------------------------------------------------
G---------------------------------------------------------------------
D--------------------------2------------------------------------------
A-------------------2--4--------2--4----------------------------------
E----4--2--0----4-------------4---------------------------------------

That's all I can tab right now but I'll be back tomorrow to finish it 
up!
            
Hard to play? Try these video lessons and learn fast. | Correct




comments powered by Disqus
↑ Back to top | Tablatures and chords are parodies/interpretations of the original songs. You may use it for private study, scholarship, research or language learning purposes only