» » »

Van Morrison, Into The Mystic Tabs (ver.1)

Artists:  A B C D E F G H I J K L M N O P Q R S T U V W X Y Z # 

Into The Mystic Tabs (ver.1)

Van Morrison Tabs
 Rating:
4/5 (4 votes)
Into The Mystic lessons Tabs too difficult? Try these video lessons and learn fast
1
                INTO THE MYSTIC
VAN MORRISON


Tuning: Open D   D-A-D-F#-A-D

Capo 1st fret (chords and tabs relative to capo)


D-----0-0--s--0---0---0-0-0-|     (you can mix it up by playing the
A-----0-0--t--0---0---0-0-0-|    repeated 5p4's on the high D string)
F#----0-0--r--0---0---0-0-0-|
D-----2h4--u--5p4-5p4-5p4-4-| repeat 5 more times
A-----0-0--m--0---0---0-0-0-|
D-----0-0-----0---0---0-0-0-|

VERSE
E
We were born before the wind
Also younger than the sun
B (bar the 7th fret)                              E  (open)
Eyre the bonnie boat was won, as we sailed into the mystic

E
Hark now hear the sailor's cry
Smell the sea and feel the sky
B                                   E
Let your soul and spirit fly into the mystic

BRIDGE
     G#   A   B   B         A                        E
D-----4---5---7---7---------5------------------------0---|
A----4---5---7----7---------5------------------------0---|
F#--4---5---7-----7---------5------------------------0---|
D--sweep-these----7---------5------------------------0---|
A-----------------7---------5------------------------0---|
D--4---5---7------7---------5------------------------0---|

                 when that fog horn blows, i will be coming home
 G#  A  B             A                      B
           when that fog horn blows, i wanna hear it… i don't have to fear it! and
(verse)
E
Iiiiii wanna rock your gypsy soul
way back to the days of old
B                                        E
and magnificently we will fold, into the mystic

SAX SOLO

D--0-0--0-----0---0---|
A--9-9--7p5p0-0-2s5---|
F#-0-0--0-----0---0---|  x2
D--0-0--0-----0---0---|
A--0-0--0-----0---0---|
D--0-0--0-----0---0---|

D--------7---------5--|
A--------7---------5--|
F#-8-7---7---8-7---5--|
D------9-7-------7-5--|
A--------7---------5--|
D--------7---------5--|

D--0-0--0-----0---0-|
A--9-9--7p5p0-0-2s5-|
F#-0-0--0-----0---0-|
D--0-0--0-----0---0-|
A--0-0--0-----0---0-|
D--0-0--0-----0---0-|

Back to the BRIDGE

Repeat 2nd VERSE

Another SAX SOLO to fade.


By Scott Nadeau
            
Submit corrections

comments powered by Disqus
↑ Back to top | Van Morrison Tabs for Into The Mystic. Lyrics for acoustic guitar and electric guitar. 1 Tablatures and chords are parodies/interpretations of the original songs. You may use it for private study, scholarship, research or language learning purposes only