» » »

Van Morrison, Im Not Feelin It Anymore Chords (ver.1)

Artists:  A B C D E F G H I J K L M N O P Q R S T U V W X Y Z # 

Im Not Feelin It Anymore Chords (ver.1)

Van Morrison Tabs
Rating:
0/5 (0 votes)
Im Not Feelin It Anymore lessons Tabs too difficult? Try these video lessons and learn fast
                -------------------------------------------------------------------------------
                             I'm not feelin' it anymore - Van Morrison
-------------------------------------------------------------------------------

tuning: standard,  e, b, g, d, a, E

E >  7
        9
        9 
        9
        7

E()  0
       0
       1
       2
       2
       0

B >  2
        4
        4
        4
        2

the 'A' chords is a regular open chord.

the little riff... you got to listen to the record to get the rhytm.
e|--------------------------------------|
B|--------------------------------------|
G|--------------------------------------|
D|--------------------------------------|
A|--11-9-11---11-x-11-9-11--------------|
E|--------------------------------------|

e|--------------------------------------|
B|--------------------------------------|
G|--------------------------------------|
D|--------------------------------------|
A|----6-4-6---6-x-6-4-6-----------------|
E|--------------------------------------|


durin the chorus somthing like this is played.
               Riff 1
e|--------------------------------------|
B|----9----7---5-----x--0p5-------------|
G|----9----7---5-----x--0p5-------------|
D|----9----7---5-----x--0p5-------------|
A|--------------------------------------|
E|--------------------------------------|


i'm sorry but i can't get the chords in the right position so you must listen when 
the switches is. this has nothing to do with me...



 E          B                             E
Have to get back, have to get back the base
   B                         A        E()
I need to talk to somebody, I can trust
E            B                            E
Too many cooks, are tryin' to spoil the broth
   B                               A          E()
I can't feel it in my throat, that's all she wrote
                riff 1                        riff 1
I'm not feeling it no more, I'm not feeling it anymore
              riff 1                    riff 1
Not feelin' it no more, not feelin' it anymore

When I was high at the party, everything looked good
I was seein' through rose coloured glasses
Not seein' the wood for the trees
I started out in normal operation
But I just ended up in doubt
All my drinking buddies, they locked me out

I'm not feelin' it no more, I'm not feelin' it anymore
No feelin' it no more, I'm tryin' to give you the score

You see me up there baby, I'm on the screen
But I know better now, it's so unreal
If this is success, then something's awful wrong
`Cause I bought the dream and I had to play along

I'm not feelin' it no more, I'm not feelin' it anymore
I'm tryin' to give you the score, I'm not feelin' it no more

We all know that money, don't buy you love
You just get a job and somewhere to live
You have to look for happiness, within yourself
And don't go chasin' thinkin' that it is somewhere else

I'm not feelin' it no more, I'm not feelin' it anymore
Baby I'm tryin' to give you the score,
I'm not feelin' it no more

I was pretending all the time
I was givin' everybody what they wanted
And I lost my peace of mind
And all I ever wanted was simply just to be me
All you ever need is the truth
And the truth will set you free

I'm not feelin' it no more, I'm not feelin' it anymore
I'm tryin' to give you the score, just like I did before
I'm not feelin' it no more, I'm not feelin' it anymore
I'm not feelin' it no more, baby I'm just trying to give you the score
I'm not feelin' it no more, not feelin' it anymore
Not feelin' it no more
Not feelin' it no more baby. 
            
Submit corrections

comments powered by Disqus
↑ Back to top | Van Morrison Chords for Im Not Feelin It Anymore. Lyrics for acoustic guitar and electric guitar. Tablatures and chords are parodies/interpretations of the original songs. You may use it for private study, scholarship, research or language learning purposes only