>
 >
Glad Tidings

Glad Tidings Bass Tabs

Van Morrison - Glad Tidings chords, tabs, tablatures, lyrics

Guitar lessons | Add/correct | Request | Top 50 tabs Artists:  A B C D E F G H I J K L M N O P Q R S T U V W X Y Z 0-9

Glad Tidings Bass Tabs – Van Morrison

CD, Sheet music, Poster

Do you like Glad Tidings? Share with your friends now
Bass TabsChordsChords v2Ukulele
Van Morrison
Bass Tab
Original Bassist: John Klingberg 

Tempo=160BPM 4/4 Time

Intro
                                                                                   4x
||-----12-12--12--12--|----12-12--12--12--|----12-12--12--12--|----12-12--12--12---||
||o-12----------------|-12----------------|-12----------------|-12----------------o||
||o-------------------|-------------------|-------------------|-------------------o||
||--------------------|-------------------|-------------------|--------------------||

Verse
                                         
|-----------12--12--|----12-12--12--12--|-----------12--12--|----12-12--12--12--|
|-12----------------|-12----------------|-12----------------|-12----------------|
|----10-10----------|-------------------|----10-10----------|-------------------|
|-------------------|-------------------|-------------------|-------------------|

|-----------12--12--|------------|-----|
|-12----------------|------------|-----|
|----10-10----------|-0-5--5~----|-----|
|-------------------|------------|-----|

Chorus

|------------|--------------|--------------|--------------|
|-5--5----5--|-------2--3h4-|-5--5--5------|--------------|
|------------|-3--3---------|----------2-3-|-5--5---------|
|------------|--------------|--------------|-------7-5--5-|

|---------------|---------------|-------4-4-5h6-|-7--7--7-7-----|
|---------------|-------2-2-3h4-|-5--5----------|-----------9-7-|
|-------2-2-3-2-|-3--3----------|---------------|---------------|
|-3--3----------|---------------|---------------|---------------|

Verse
                                                                    6x
||----------------|---------------|---------------|-----------------||
||o-5-5--5--5-5---|-5-5--5--5-5---|-5-5--5--5-5---|-5-5--5--5-5----o||
||o-------------5-|-------------5-|-------------5-|-------------5--o||
||----------------|---------------|---------------|-----------------||

|-----------|-----|
|-----------|-----|
|-5--5~-----|-----|
|-----------|-----|

Chorus

|-------------|--------------|--------------|---------------|
|-5--5--------|-------2--3h4-|-5--5--5------|-----------2-4-|
|----------2--|-3--3---------|----------2-3-|-5--5--5-5-----|
|-------3-----|--------------|--------------|---------------|

|---------------|---------------|---------------|---------------|
|-5--5----------|-------2-2-3h4-|-5--5----------|---------------|
|-------2-2-3-5-|-3--3----------|-------2-2-3h4-|-5--5--5-5-----|
|---------------|---------------|---------------|-----------7-5-|

|---------------|---------------|---------------|-------------|
|---------------|-5-5--5--5-5---|-5-5--5--5-5-4-|-3---2-------|
|-------------5-|-------------5-|---------------|--------5--4-|
|-3-3--3--3-3---|---------------|---------------|-------------|

Bridge

|------------2-|------------4-|-------------|---------------|
|-----2--3-5---|-----4--5-7---|-5-----------|------5--5-3---|
|-3------------|-5------------|-----5-----3-|--4-5--------5-|
|--------------|--------------|-------3-----|---------------|

|-------------2-|-----------4-|--------------|---------------|
|-----2-2-3-5---|-----4--5----|-5------------|------5--5-3---|
|-3-------------|-5-----------|-----5----2-3-|--4-5--------5-|
|---------------|-------------|-------3------|---------------|

|------------2-|-------------4-|--------------|---------------|
|-----2--3-5---|------4--5-7---|-5---5--5-----|---------------|
|-3------------|-5-5-----------|----------5h6-|-7-7--5--7-5---|
|--------------|---------------|--------------|-------------7-|

|-------------|---------------|
|-------------|-----------2-3-|
|-3---3--5--7-|-5---2-3-5-----|
|-------------|---------------|

Verse

|---------------|---------------|---------------|---------------|
|-5-5--5--5-5---|-5-5--5--5-5---|-5-5--5--5-5---|-5-5--5--5-5---|
|-------------5-|-------------5-|-------------5-|-------------5-|
|---------------|---------------|---------------|---------------|

||------------2-4-|-5-5-----------|-----------2-4-|-5-5-------------|| *First time only
||o-5-5--5--5-----|-----------2-3-|-5-5*-5--5-----|-----------2-3--o||
||o---------------|------3--3-----|---------------|------3--3------o||
||----------------|---------------|---------------|-----------------||
                                                                  3x
||-----------2-4-|-5-5-----------|----------2-4-|-5-5-------------||
||o-5---5--5-----|-----------2-3-|-5---5--5-----|-----------2-3--o||
||o--------------|------3--3-----|--------------|------3--3------o||
||---------------|---------------|--------------|-----------------||

|--------------|-----------|-----|
|-5---5--5-2---|-----------|-----|
|------------2-|-5--5~-----|-----|
|--------------|-----------|-----|

Chorus

|-------------|--------------|---------------|---------------|
|-------------|-------2--3h4-|-5--5--5-5-----|---------------|
|-------0--2--|-3--3---------|-----------3-3-|-5--5--5-5-----|
|-3--3--------|--------------|---------------|-----------7-5-|

|---------------|---------------|-------4-4-5h6-|-7--7--7-7-----|
|---------------|-------2-2-3h4-|-5--5----------|-----------9-7-|
|-------2-2-3-2-|-3--3----------|---------------|---------------|
|-3--3----------|---------------|---------------|---------------|

|---------------|---------------|---------------|--------------|
|-5-5--5--5-5---|-5-5--5--5-5---|-5-5--5--5-5---|-3-3--2-------|
|-------------5-|-------------5-|-------------5-|---------5--4-|
|---------------|---------------|---------------|--------------|

Bridge

|------------2-|------------4-|-------------|---------------|
|----/2--3-5---|-----4--5-7---|-5---5-------|------5--5-3---|
|-3------------|-5------------|-----------3-|--4-5--------5-|
|--------------|--------------|-------3-----|---------------|

|------------2-|----------7---|-------------|---------------|
|-----2--3-5---|-----4--7---7-|-5---5-------|------5--5-3---|
|-3------------|-5------------|-----------3-|--4-5--------5-|
|--------------|--------------|-------3-----|---------------|

|-------------2-|---------4----|----------------|--------------|
|-----2-3-4-5---|----4-7-----4-|-5--5-5-5-------|--------------|
|-3-------------|-5------------|----------5-6-7-|--5--7-7-5----|
|---------------|--------------|----------------|-----------7--|

Ending

|-------------|--------------|---------------|--------------|
|-----2--3--5-|--------------|-------------4-|-5-5--5--5----|
|-3-----------|-5-5----------|--------5-5----|------------5-|
|-------------|------7--5--7-|-3-3--3--------|--------------|

|---------------|---------------|-----------2-4-|-5------------|
|-5-5--5--5-5---|-5-5--5--5-5---|-5-5--5--5-----|----------2-3-|
|-------------5-|-------------5-|---------------|-----3--3-----|
|---------------|---------------|---------------|--------------|

|-----------|-----*|
|-5---------|-----*|
|-----------|-----*|
|----3~-----|-----*|





Comments


Popular Van Morrison tabs & chords
Brand New Day Chords
Cleaning Windows Chords
Madame George Chords
Moondance Chords
Precious Time Chords
These Dreams Of You Chords
Brown Eyed Girl 6 Tabs
Wild Night Tabs
Have I Told You Lately Ukulele
Redwood Tree Ukulele


Song lyrics



↑ Back to top | Tablatures and chords are parodies/interpretations of the original songs. You may use it for private study, scholarship, research or language learning purposes only
© 2014 AZChords.com Contact us | Privacy policy | DMCA | Add/correct tabs | Request tabs | Top 50 tabs