» » »

Vanilla Sky, Umbrella Tabs (ver.6)

Artists:  A B C D E F G H I J K L M N O P Q R S T U V W X Y Z # 

Umbrella Tabs (ver.6)

Vanilla Sky Tabs
Rating:
0/5 (0 votes)
Umbrella lessons Tabs too difficult? Try these video lessons and learn fast
                -----------------------------------------------------------------------------

Tuning:drop everything a half tone

intro+(all)verses+ella part:guitar3
eb|---------------15----15----15---------|
Bb|---17-17-17-17----17----17----17-17---|
Gb|--------------------------------------|
Db|--------------------------------------|
Ab|--------------------------------------|
Eb|--------------------------------------|

vers1(X2):guitar1
eb|----------------------|
Bb|----------------------|
Gb|----------------------|
Db|---3----5----2----7---|    
Ab|---3----5----2----7---|
Eb|---1----3----0----5---|

chorus(X2):guitar1
eb|---------------------------------------------------------------------|
Bb|---------------------------------------------------------------------|
Gb|---------------------------------------------------------------------|
Db|---3-3-3-3-3-3-3-3-3-3-3-3-3-3-3-3-5-5-5-5-5-5-5-5-5-5-5-5-5-5-5-5---|
Ab|---3-3-3-3-3-3-3-3-3-3-3-3-3-3-3-3-5-5-5-5-5-5-5-5-5-5-5-5-5-5-5-5---|
Eb|---1-1-1-1-1-1-1-1-1-1-1-1-1-1-1-1-3-3-3-3-3-3-3-3-3-3-3-3-3-3-3-3---|

eb|---------------------------------------------------------------------|
Bb|---------------------------------------------------------------------|
Gb|---------------------------------------------------------------------|
Db|---2-2-2-2-2-2-2-2-2-2-2-2-2-2-2-2-7-7-7-7-7-7-7-7-7-7-7-7-7-7-7-7---|
Ab|---2-2-2-2-2-2-2-2-2-2-2-2-2-2-2-2-7-7-7-7-7-7-7-7-7-7-7-7-7-7-7-7---|
Eb|---0-0-0-0-0-0-0-0-0-0-0-0-0-0-0-0-5-5-5-5-5-5-5-5-5-5-5-5-5-5-5-5---|

ella part(x2)
eb|---------------------------------------|
Bb|---------------------------------------|
Gb|---------------------------------------|
Db|---3-3----5-5--5-5---2-2----7-7--7-7---|    (with echo)
Ab|---3-3----5-5--5-5---2-2----7-7--7-7---|
Eb|---1-1----3-3--3-3---0-0----5-5--5-5---|

chorus(X2):guitar2
eb|----------------------------------------------------------------------------|
Bb|----------------------------------------------------------------------------|
Gb|---1010101010101010101010101010101012-12-12-12-12-12-12-12-12-12-12-12-12---|
Db|---1010101010101010101010101010101012-12-12-12-12-12-12-12-12-12-12-12-12---|
Ab|---8-8-8-8-8-8-8-8-8-8-8-8-8-8-8-8-10-10-10-10-10-10-10-10-10-10-10-10-10---|
Eb|----------------------------------------------------------------------------|

eb|----------------------------------------------------------------------------|
Bb|----------------------------------------------------------------------------|
Gb|---9-9-9-9-9-9-9-9-101010109-9-9-9-14-14-14-14-14-14-14-16-16-16-16-16-16---|
Db|---9-9-9-9-9-9-9-9-101010109-9-9-9-14-14-14-14-14-14-14-16-16-16-16-16-16---|
Ab|---7-7-7-7-7-7-7-7-8-8-8-8-7-7-7-7-12-12-12-12-12-12-12-14-14-14-14-14-14---|
Eb|----------------------------------------------------------------------------|

ella part(after guitar1 played it 1 time):
eb|--------------------------------------------------|
Bb|--------------------------------------------------|
Gb|--------------------------------------------------|
Db|---999999999999999999999999-888888888888-99999\---|   
Ab|--------------------------------------------------|
Eb|--------------------------------------------------|

vers(X2):guitar1
eb|---------------------------------------------------------------------|
Bb|---------------------------------------------------------------------|
Gb|---------------------------------------------------------------------|
Db|---3-3-3-3-3-3-3-3-3-3-3-3-3-3-3-3-5-5-5-5-5-5-5-5-5-5-5-5-5-5-5-5---|
Ab|---3-3-3-3-3-3-3-3-3-3-3-3-3-3-3-3-5-5-5-5-5-5-5-5-5-5-5-5-5-5-5-5---|
Eb|---1-1-1-1-1-1-1-1-1-1-1-1-1-1-1-1-3-3-3-3-3-3-3-3-3-3-3-3-3-3-3-3---|

eb|---------------------------------------------------------------------|
Bb|---------------------------------------------------------------------|
Gb|---------------------------------------------------------------------|
Db|---2-2-2-2-2-2-2-2-2-2-2-2-2-2-2-2-7-7-7-7-7-7-7-7-7-7-7-7-7-7-7-7---|
Ab|---2-2-2-2-2-2-2-2-2-2-2-2-2-2-2-2-7-7-7-7-7-7-7-7-7-7-7-7-7-7-7-7---|
Eb|---0-0-0-0-0-0-0-0-0-0-0-0-0-0-0-0-5-5-5-5-5-5-5-5-5-5-5-5-5-5-5-5---|
everything palm muted 

chorus(X2):guitar1
eb|---------------------------------------------------------------------|
Bb|---------------------------------------------------------------------|
Gb|---------------------------------------------------------------------|
Db|---3-3-3-3-3-3-3-3-3-3-3-3-3-3-3-3-5-5-5-5-5-5-5-5-5-5-5-5-5-5-5-5---|
Ab|---3-3-3-3-3-3-3-3-3-3-3-3-3-3-3-3-5-5-5-5-5-5-5-5-5-5-5-5-5-5-5-5---|
Eb|---1-1-1-1-1-1-1-1-1-1-1-1-1-1-1-1-3-3-3-3-3-3-3-3-3-3-3-3-3-3-3-3---|

eb|---------------------------------------------------------------------|
Bb|---------------------------------------------------------------------|
Gb|---------------------------------------------------------------------|
Db|---2-2-2-2-2-2-2-2-2-2-2-2-2-2-2-2-7-7-7-7-7-7-7-7-7-7-7-7-7-7-7-7---|
Ab|---2-2-2-2-2-2-2-2-2-2-2-2-2-2-2-2-7-7-7-7-7-7-7-7-7-7-7-7-7-7-7-7---|
Eb|---0-0-0-0-0-0-0-0-0-0-0-0-0-0-0-0-5-5-5-5-5-5-5-5-5-5-5-5-5-5-5-5---|

chorus(X2):guitar2
eb|----------------------------------------------------------------------------|
Bb|----------------------------------------------------------------------------|
Gb|---1010101010101010101010101010101012-12-12-12-12-12-12-12-12-12-12-12-12---|
Db|---1010101010101010101010101010101012-12-12-12-12-12-12-12-12-12-12-12-12---|
Ab|---8-8-8-8-8-8-8-8-8-8-8-8-8-8-8-8-10-10-10-10-10-10-10-10-10-10-10-10-10---|
Eb|----------------------------------------------------------------------------|

eb|----------------------------------------------------------------------------|
Bb|----------------------------------------------------------------------------|
Gb|---9-9-9-9-9-9-9-9-101010109-9-9-9-14-14-14-14-14-14-14-16-16-16-16-16-16---|
Db|---9-9-9-9-9-9-9-9-101010109-9-9-9-14-14-14-14-14-14-14-16-16-16-16-16-16---|
Ab|---7-7-7-7-7-7-7-7-8-8-8-8-7-7-7-7-12-12-12-12-12-12-12-14-14-14-14-14-14---|
Eb|----------------------------------------------------------------------------|

ella;solo:guitar2
eb|-------------------------------------------------------------------5---|
Bb|---5h6p5-----------5h6p5------------5h6p5------------5h6p5-------------|
Gb|---------7-5-7-5-7-------7-5---5-7--------7-5-7-5-7--------7-5---5-----|
Db|-----------------------------7---------------------------------7-------|
Ab|-----------------------------------------------------------------------|
Eb|-----------------------------------------------------------------------|

eb|----------5----------------------------------------------------------5---|
Bb|---5h6p5--------------5h6p5-----------5h6p5------------5h6p5-------------|
Gb|------------7-5-7-5-7-------7-5---5-7-------7-5-7-5-7--------7-5---5-----|
Db|--------------------------------7--------------------------------7-------|
Ab|-------------------------------------------------------------------------|
Eb|-------------------------------------------------------------------------|

eb|-------------------------------------------------------------------5---|
Bb|---5h6p5-----------5h6p5------------5h6p5------------5h6p5-------------|
Gb|---------7-5-7-5-7-------7-5---5-7--------7-5-7-5-7--------7-5---5-----|
Db|-----------------------------7---------------------------------7-------| 
Ab|-----------------------------------------------------------------------|
Eb|-----------------------------------------------------------------------|

eb|-----------------------------------------------------------------------|
Bb|---5h6p5-----------5h6p5------------5h6p5------------5h6p5-------------|
Gb|---------7-5-7-5-7-------7-5---5-7--------7-5-7-5-7--------7-5---5-9---|
Db|-----------------------------7---------------------------------7-------|
Ab|-----------------------------------------------------------------------|
Eb|-----------------------------------------------------------------------|

piano part(bridge)

bridge:bass+guitar1 
eb|------------------------|
Bb|------------------------|
Gb|------------------------|
Db|------------------------|
Ab|------------------------|
Eb|---3-5-6---8\1---3-0----|

chorus(X2):guitar1
eb|---------------------------------------------------------------------|
Bb|---------------------------------------------------------------------|
Gb|---------------------------------------------------------------------|
Db|---3-3-3-3-3-3-3-3-3-3-3-3-3-3-3-3-5-5-5-5-5-5-5-5-5-5-5-5-5-5-5-5---|
Ab|---3-3-3-3-3-3-3-3-3-3-3-3-3-3-3-3-5-5-5-5-5-5-5-5-5-5-5-5-5-5-5-5---|
Eb|---1-1-1-1-1-1-1-1-1-1-1-1-1-1-1-1-3-3-3-3-3-3-3-3-3-3-3-3-3-3-3-3---|

eb|------------------------------------------------------------------------|
Bb|------------------------------------------------------------------------|
Gb|------------------------------------------------------------------------|
Db|---2-2-2-2-2-2-2-2-2-2-2-2-2-2-2-2-7-7-7-7-7-7-7-7-7--9--10-12--10--9---|
Ab|---2-2-2-2-2-2-2-2-2-2-2-2-2-2-2-2-7-7-7-7-7-7-7-7-7--9--10-12--10--9---|
Eb|---0-0-0-0-0-0-0-0-0-0-0-0-0-0-0-0-5-5-5-5-5-5-5-5-5--7--8--10--8---7---|

ella part:guitar1
eb|---------------------------------------------------------------------|
Bb|---------------------------------------------------------------------|
Gb|---------------------------------------------------------------------|
Db|---3-3-3-3-3-3-3-3-3-3-3-3-3-3-3-3-5-5-5-5-5-5-5-5-5-5-5-5-5-5-5-5---|
Ab|---3-3-3-3-3-3-3-3-3-3-3-3-3-3-3-3-5-5-5-5-5-5-5-5-5-5-5-5-5-5-5-5---|
Eb|---1-1-1-1-1-1-1-1-1-1-1-1-1-1-1-1-3-3-3-3-3-3-3-3-3-3-3-3-3-3-3-3---|

eb|---------------------------------------------------------------------|
Bb|---------------------------------------------------------------------|
Gb|---------------------------------------------------------------------|
Db|---2-2-2-2-2-2-2-2-2-2-2-2-2-2-2-2-7-7-7-7-7-7-7-7-7-7-7-7-7-7-7-7---|
Ab|---2-2-2-2-2-2-2-2-2-2-2-2-2-2-2-2-7-7-7-7-7-7-7-7-7-7-7-7-7-7-7-7---|
Eb|---0-0-0-0-0-0-0-0-0-0-0-0-0-0-0-0-5-5-5-5-5-5-5-5-5-5-5-5-5-5-5-5---|

eb|--------------------------------------------------------------------|
Bb|--------------------------------------------------------------------|
Gb|--------------------------------------------------------------------|
Db|---3-3-3-3-3-3-3-3-3-3-3-3-3-3-3-3-5-5-5-5-5-5-5-5-5-5-5-5--5--3----|
Ab|---3-3-3-3-3-3-3-3-3-3-3-3-3-3-3-3-5-5-5-5-5-5-5-5-5-5-5-5--5--3----|
Eb|---1-1-1-1-1-1-1-1-1-1-1-1-1-1-1-1-3-3-3-3-3-3-3-3-3-3-3-3--3--1----|

eb|---------------------------------------------------------------------|
Bb|---------------------------------------------------------------------|
Gb|---------------------------------------------------------------------|
Db|---2-2-2-2-2-2-2-2-2-2-2-2-2-2-2-2-7-7-7-7-7-7-7-7-7-7-7-7-7-7-7-7---|
Ab|---2-2-2-2-2-2-2-2-2-2-2-2-2-2-2-2-7-7-7-7-7-7-7-7-7-7-7-7-7-7-7-7---|
Eb|---0-0-0-0-0-0-0-0-0-0-0-0-0-0-0-0-5-5-5-5-5-5-5-5-5-5-5-5-5-5-5-5---|


chorus(X2):guitar2
eb|----------------------------------------------------------------------------|
Bb|----------------------------------------------------------------------------|
Gb|---1010101010101010101010101010101012-12-12-12-12-12-12-12-12-12-12-12-12---|
Db|---1010101010101010101010101010101012-12-12-12-12-12-12-12-12-12-12-12-12---|
Ab|---8-8-8-8-8-8-8-8-8-8-8-8-8-8-8-8-10-10-10-10-10-10-10-10-10-10-10-10-10---|
Eb|----------------------------------------------------------------------------|

eb|-------------------------------------------------------------|
Bb|-------------------------------------------------------------|
Gb|---9-9-9-9-9-9-9-9-101010109-9-9-9-14-14-14-14-14-14-14-14---|
Db|---9-9-9-9-9-9-9-9-101010109-9-9-9-14-14-14-14-14-14-14-14---|
Ab|---7-7-7-7-7-7-7-7-8-8-8-8-7-7-7-7-12-12-12-12-12-12-12-12---|
Eb|-------------------------------------------------------------|

ella;solo:guitar2
eb|-------------------------------------------------------------------5---|
Bb|---5h6p5-----------5h6p5------------5h6p5------------5h6p5-------------|
Gb|---------7-5-7-5-7-------7-5---5-7--------7-5-7-5-7--------7-5---5-----|
Db|-----------------------------7---------------------------------7-------|
Ab|-----------------------------------------------------------------------|
Eb|-----------------------------------------------------------------------|

eb|----------5----------------------------------------------------------5---|
Bb|---5h6p5--------------5h6p5-----------5h6p5------------5h6p5-------------|
Gb|------------7-5-7-5-7-------7-5---5-7-------7-5-7-5-7--------7-5---5-----|
Db|--------------------------------7--------------------------------7-------|
Ab|-------------------------------------------------------------------------|
Eb|-------------------------------------------------------------------------|

eb|-----------------------------------------------------------------------|
Bb|---5h6p5-----------5h6p5------------5h6p5------------5h6p5-------------|
Gb|---------7-5-7-5-7-------7-5---5-7--------7-5-7-5-7--------7-5-5-5-4---|
Db|-----------------------------7-----------------------------------------| 
Ab|-----------------------------------------------------------------------|
Eb|-----------------------------------------------------------------------|

eb|-----------------------------------------------------------------------|
Bb|---5h6p5-----------5h6p5------------5h6p5------------5h6p5-------------|
Gb|---------7-5-7-5-7-------7-5---5-7--------7-5-7-5-7--------7-5---5-9---|
Db|-----------------------------7---------------------------------7-------|
Ab|-----------------------------------------------------------------------|
Eb|-----------------------------------------------------------------------|

outro:guitar1
eb|---------15----------13------|
Bb|------17----17----17----17---|
Gb|---17----------17------------|
Db|-----------------------------|   repeat untill the end
Ab|-----------------------------|
Eb|-----------------------------|

outro:guitar2
eb|---9---11--8---13---|
Bb|---7---9---6---11---|
Gb|--------------------|
Db|--------------------|    repeat untill the end
Ab|--------------------|
Eb|--------------------|


| /  slide up
| \  slide down
| h  hammer-on
| p  pull-off
| ~  vibrato
| +  harmonic
| x  Mute note
=============================================================================
            
Submit corrections

comments powered by Disqus
↑ Back to top | Vanilla Sky Tabs for Umbrella. Lyrics for acoustic guitar and electric guitar. Tablatures and chords are parodies/interpretations of the original songs. You may use it for private study, scholarship, research or language learning purposes only