» » »

Vanilla Sky, Umbrella Bass tabs (ver.2)

Artists:  A B C D E F G H I J K L M N O P Q R S T U V W X Y Z # 

Umbrella Bass tabs (ver.2)

Vanilla Sky Tabs
Rating:
5/5 (1 vote)
Umbrella lessons Tabs too difficult? Try these video lessons and learn fast
                ----------------------------------------------------------------------------

                            Vanilla sky - umbrella

                                    Bass tab
----------------------------------------------------------------------------
Tuning: Standard


Verse 1 

G|------------------|
D|------------------|
A|-------6----------|
E|-0--2-----4-------|

Pre chorus ("When the sun shines.....")
G|----------------------------------------|
D|----------------------------------------|
A|-----------22222222---------------------|  x2
E|-00000000------------22222222--44444444-|


Chorus ("Ella, ella...")
G|------------------|
D|------------------|  x2
A|----------6-------|
E|-0--2-2-----4-4---|


verse 2

G|------------------------------------------|
D|------------------------------------------|
A|----------------------66666666------------|   x2
E|--00000000--22222222------------44444444--|


Pre chorus ("When the sun shines.....")
G|----------------------------------------|
D|----------------------------------------|
A|-----------22222222---------------------|  x2
E|-00000000------------22222222--44444444-|


Chorus ("Ella, ella...")

G|--------------------------------------|
D|--------------------------------------|  x2
A|--------------------6666666-----------|
E|-0000000--22222222-----------44444444-|



Bridge 

G|------------------|
D|------------------|
A|--0--2--------------|
E|--------5----------|


2:24
G|---------------------------------|
D|---------------/9----------------|
A|--9-11-12-----------7----/9------|
E|-----------------------------11--|



Pre chorus ("When the sun shines.....")

G|----------------------------------------|
D|----------------------------------------|
A|-----------22222222---------------------|  x2
E|-00000000------------22222222--44444444-|



Chorus ("Ella, ella...")

G|--------------------------------------|
D|--------------------------------------|  x2
A|--------------------6666666-----------|
E|-0000000--22222222-----------44444444-|


G|------------------|
D|------------------|
A|-------6----------|   x4
E|-0--2-----4-------|  


By meangirl
            

comments powered by Disqus
↑ Back to top | Vanilla Sky Bass for Umbrella. Lyrics for acoustic guitar and electric guitar. Tablatures and chords are parodies/interpretations of the original songs. You may use it for private study, scholarship, research or language learning purposes only