» » »

Vanilla Sky, Umbrella Bass tabs (ver.1)

Artists:  A B C D E F G H I J K L M N O P Q R S T U V W X Y Z # 

Umbrella Bass tabs (ver.1)

Vanilla Sky Tabs
Rating:
5/5 (2 votes)
Umbrella lessons Tabs too difficult? Try these video lessons and learn fast
                Intro/verse

G|-----------------------------------------------------------------------|
D|-----------------------------------------------------------------------|
A|-----------------------------------------------------------------------|x2
E|---0~~--------7~~---------2~~---------4~~------------------------------|

Pre chorus
G|-----------------------------------------------------------------|
D|--22222222222----------------------------------------------------|
A|--------------222222222222---------------------------------------|
E|----------------------------222222222222-----44444444444444------|

ella ella..
G|---------------------------------------------------------------------|
D|---------------------------------------------------------------------|
A|---------------------------------------------------------------------|
E|--00-0---22---00-0--44--00-0---22---00-0---44------------------------|


Verse
G|--------------------------------------------------------------------|
D|--------------------------------------------------------------------|
A|---------------22222222222------------------------------------------|
E|--0000000000------------------22222222222-------444444444444--------|

Pre chorus
G|-----------------------------------------------------------------|
D|--22222222222----------------------------------------------------|
A|--------------222222222222---------------------------------------|
E|----------------------------222222222222-----44444444444444------|

ella ella..
G|---------------------------------------------------------------------|
D|---------------------------------------------------------------------|
A|---------------------------------------------------------------------|
E|--00-0---22---00-0--44--00-0---22---00-0---44------------------------|

Bridge
G|------------------------------------------|
D|-----------4-6p4--------------------------|
A|---2---2h4-------4------------------------|
E|-------------------4--64-2----------------|

Pre chorus
G|-----------------------------------------------------------------|
D|--22222222222----------------------------------------------------|
A|--------------222222222222---------------------------------------|
E|----------------------------222222222222-----44444444444444------|

bass slidey thingo
G|--------------------------|
D|--------------------------|
A|-----9/0------------------|
E|--------------------------|
            
Submit corrections

comments powered by Disqus
↑ Back to top | Vanilla Sky Bass for Umbrella. Lyrics for acoustic guitar and electric guitar. Tablatures and chords are parodies/interpretations of the original songs. You may use it for private study, scholarship, research or language learning purposes only