» » »

Vanilla Sky, Umbrella Tabs (ver.3)

Artists:  A B C D E F G H I J K L M N O P Q R S T U V W X Y Z # 

Umbrella Tabs (ver.3)

Vanilla Sky Tabs
Rating:
3/5 (2 votes)
Umbrella lessons Tabs too difficult? Try these video lessons and learn fast
                ho deciso di mettere questa tb perchè gli accordi che ho trovato in rete, la maggior 
grazie!

/*la canzone dei Vanilla è droppata di mezzo tono quindi il tuning sarà il seguente: D# 
C# F# A# d#, se volete potete comunque suonarla normalmente perchè non fa schifo, anzi...

intro (relative clean)[00:00 - 00:10]
  ----------------------------|
  ---------8---8---8----------|
  -9-9-9-9---9---9---9-9-9----|
  ----------------------------| X2
  ----------------------------|
D#----------------------------|

accordi iniziali [00:10 - 00:30]
  ------------------|
  ------------------|
  -----4-----5------|
  -3---5--2--7------| X2
  -3---5--2--7------|
D#-1------0---------|

Chorus [00:31 - 00:51]
  -----------------|
  -----------------|
  -----5-----------|
  -3---5--5---7----|
  -3---3--5---7----|
D#-1------3---5----|

Semi-interlude [00:52 - 01:11]
  -------------------------|
  -------------------------|
  -------------------------|
  -3-3--5--5--2--2--7-7----|
  -3-3--5--5--2--2--7-7----|
D#-1-1--3--3--0--0--5-5----|

Second verse [01:12 - 01:32]
  (palm-muting)
  ---------------------------------------------------------------|
  ---------------------------------------------------------------|
  ---------------------------------------------------------------|
  -3-3-3-3-3-3-3-5-5-5-5-5-5-5-2-2-2-2-2-2-2-7-7-7-7-7-9-9-10-10-|
  -3-3-3-3-3-3-3-5-5-5-5-5-5-5-2-2-2-2-2-2-2-7-7-7-7-7-9-9-10-10-|
D#-1-1-1-1-1-1-1-3-3-3-3-3-3-3-0-0-0-0-0-0-0-5-5-5-5-5-7-7--8--8-|

Chorus[01:32 - 01:54]

Semi-interlude[01:54 - 02:14]

Bridge[02:14 - 02:34]
  (let ring)
  --------------|-------------------------|
  --------------|-------------------------|
  ---------5----|-------------------------|
  -8---3---5--5-|--5-7-8-8-8/10-3-3/5--2--|
  -8---3---3--5-|--5-7-8-8-8/10-3-3/5--2--|
D#-6---1------3-|--3-5-6-6-6/8--1-1/3--0--|

Chorus[02:35 - 03:16]
            
Submit corrections

comments powered by Disqus
↑ Back to top | Vanilla Sky Tabs for Umbrella. Lyrics for acoustic guitar and electric guitar. Tablatures and chords are parodies/interpretations of the original songs. You may use it for private study, scholarship, research or language learning purposes only