» » »

Vanilla Sky, Umbrella Tabs (ver.5)

Artists:  A B C D E F G H I J K L M N O P Q R S T U V W X Y Z # 

Umbrella Tabs (ver.5)

Vanilla Sky Tabs
 Rating:
4.2/5 (5 votes)
Umbrella lessons Tabs too difficult? Try these video lessons and learn fast
1
                INTRO e VERSO:           RITORNELLO:

[You have my heart..]   [When the sun shine..]

|---|---|---|---|       |---|---|---|---|
|---|---|---|---|       |---|---|---|---|
|-9-|---|---|---|       |-9-|---|---|---|
|-9-|-9-|-4-|-6-|       |-9-|-9-|-4-|-6-|
|-7-|-9-|-4-|-6-|       |-7-|-9-|-4-|-6-|
|---|-7-|-2-|-4-| x2    |---|-7-|-2-|-4-| x2

PRE VERSO:              VERSO:

[Ella ella ella..]      [This fancy things..]

|---|---|---|---|      |---|---|---|---|   
|---|---|---|---|      |---|---|---|---|   
|-9-|---|---|---|      |-9-|---|---|---|   
|-9-|-9-|-4-|-6-|      |-9-|-9-|-4-|-6-|   
|-7-|-9-|-4-|-6-|      |-7-|-9-|-4-|-6-|   
|---|-7-|-2-|-4-| x2   |---|-7-|-2-|-4-| x2

RITORNELLO:             PRE INTERLUDE:

[When the sunshine..]  [Ella ella ella..]

|---|---|---|---|       |---|---|---|---|
|---|---|---|---|       |---|---|---|---|
|-9-|---|---|---|       |-9-|---|---|---|
|-9-|-9-|-4-|-6-|       |-9-|-9-|-4-|-6-|
|-7-|-9-|-4-|-6-|       |-7-|-9-|-4-|-6-|
|---|-7-|-2-|-4-| x2    |---|-7-|-2-|-4-| x2

INTERLUDE:

[You can run..]   

|---| -------|-----|---|---|
|---| -------|-----|---|---|
|-9-| -------|-----|---|---|
|-9-| -------|-----|---|-6-|
|-7-| -------|-----|---|-6-|
|---| -2-4-5-|-5-0-|-0-|-4-|

RITORNELLO:             OUTRO:

[When the sunshine..]

|---|---|---|---|       |---|---|---|---|
|---|---|---|---|       |---|---|---|---|
|-9-|---|---|---|       |-9-|---|---|---|
|-9-|-9-|-4-|-6-|       |-9-|-9-|-4-|-6-|
|-7-|-9-|-4-|-6-|       |-7-|-9-|-4-|-6-|
|---|-7-|-2-|-4-| x2    |---|-7-|-2-|-4-| x5

|------------14-----------12-11---------14-----------12-11-|
|------14-16----16--14-16---------14-16----16--14-16-------|
|----------------------------------------------------------|
|----------------------------------------------------------|
|----------------------------------------------------------|
|----------------------------------------------------------|

|------------14-----------12-11---------14-----------14-12-|
|------14-16----16--14-16---------14-16----16--14-16-------|
|----------------------------------------------------------|
|----------------------------------------------------------|
|----------------------------------------------------------|
|----------------------------------------------------------|

= TAB BY >BaD.TiGeR< e Giabbo =
            
Submit corrections

comments powered by Disqus
↑ Back to top | Vanilla Sky Tabs for Umbrella. Lyrics for acoustic guitar and electric guitar. 1 Tablatures and chords are parodies/interpretations of the original songs. You may use it for private study, scholarship, research or language learning purposes only