» » »

Umbrella Tabs (ver.4)

Artists:  A B C D E F G H I J K L M N O P Q R S T U V W X Y Z # 

Umbrella Tabs (ver.4)

Vanilla Sky
Rating:
5/5 (4 votes)

Hard to play? Try these video lessons and learn fast.
                ...this is actually came from what i hear in the song...

INTRO (LEAD) 6x
|-------------14----14----14-------|
|-16-16-16-16----16----16----16-16-|
|----------------------------------|
|----------------------------------|
|----------------------------------|
|----------------------------------|

VERSE (BOTH GUITARS) 2x
|--------------|
|--------------|
|--9~----8~----|
|--9~-9~-8~-6~-|
|--7~-9~-6~-6~-|
|-----7~----4~-|

CHORUS (RHYTHM) 2x
|----------------------------------------|
|----------------------------------------|
|-99999999-------------------------------|
|-99999999-99999999-44444444-66666666-44-|
|-77777777-99999999-44444444-66666666-44-|
|----------77777777-22222222-44444444-22-|
(LEAD) 2x
|-----------------------------------|
|-----------------------------------|
|-1010101010101010-1212121212121212-|
|-1010101010101010-1212121212121212-|
|-8-8-8-8-8-8-8-8--1010101010101010-|
|-----------------------------------|

|----------------------------------------------------|
|----------------------------------------------------|
|-99999999-10101010-9999-14141414141414-161616161616-|
|-99999999-10101010-9999-14141414141414-161616161616-|
|-77777777-8-8-8-8--7777-12121212121212-141414141414-|
|----------------------------------------------------|

INTERLUDE (RHYTHM)
|----------------------|
|----------------------|
|-9-9-------8-8--------|
|-9-9-99-99-8-8--66-66-|
|-7-7-99-99-6-6--66-66-|
|-----77-77------44-44-|
(LEAD)
“ELLA PART” (listen to the song for the timing)
|---------------------------------------------|
|---------------------------------------------|
|---------------------------------------------|
|-999999999999999999999999-888888888888-99999-|
|---------------------------------------------|
|---------------------------------------------|


VERSE 2 (just like VERSE 1 but “STRUM EACH CHORDS”)


REPEAT CHORUS (just like CHORUS)


REPEAT INTERLUDE (just like INTERLUDE but “STRUM EACH CHORDS”)(don't play the LEAD part, 
both guitars strumming)


BRIDGE (BOTH GUITARS)
|---------------------------|
|---------------------------|
|----9~---------9~-88888888-|
|-7~-9~-9~---7~-9~-88888888-|
|-7~-7~-9~---7~-7~-66666666-|
|-5~----7~---5~-------------|


REPEAT CHORUS (just like CHORUS) 4x


OUTRO (RHYTHM) 2x
|--------------|
|--------------|
|--9~----8~----|
|--9~-9~-8~-6~-|
|--7~-9~-6~-6~-|
|-----7~----4~-|
(LEAD) 4x
|-------------15----15----15-------|
|-17-17-17-17----17----17----17-17-|
|----------------------------------|
|----------------------------------|
|----------------------------------|
|----------------------------------|

well hope sounds ok
            
Hard to play? Try these video lessons and learn fast. | Correct




comments powered by Disqus
↑ Back to top | Tablatures and chords are parodies/interpretations of the original songs. You may use it for private study, scholarship, research or language learning purposes only