>
 >
Goodbye 1

Goodbye 1 Guitar Tabs

Vanilla Sky - Goodbye 1 chords, tabs, tablatures, lyrics

Guitar lessons | Add/correct | Request | Top 50 tabs Artists:  A B C D E F G H I J K L M N O P Q R S T U V W X Y Z 0-9

Goodbye 1 Guitar Tabs – Vanilla Sky

CD, Sheet music, Poster

Do you like Goodbye 1? Share with your friends now
Bass TabsTabsTabs v2
this one is the continuation of the tab i made 
which was accurate for rythm guitars.
and this one is for the lead.



Legend:
* : palm muted
x : dead string
> : continually strummed 'til the next chord

Intro
|----------10---10---12-10--------10--||=>do this 'tiLL the verse one starts
|-------------------------------------||
|-------11--11-------------11--11-----||
|-------------------------------------||
|-------------------------------------||
|-------------------------------------||

Verse
1.This would be ..              
2.A usual sessi0n...              
3.I tell you ...                  ||1.If you dont care about..
4.And be honest...                ||2.I will surely wright ..
|-----10---10---12-10---------10--||-----14---14---15-10--------14-||
|---------------------------------||-------------------------------||
|--11--11-------------11--11------||--11--11-------------11--11----||
|---------------------------------||-------------------------------||
|---------------------------------||-------------------------------||
|---------------------------------||-------------------------------||

Refrain
You've been deserving...||time
|-7--7--7-----------------5--5----5-----|
|--5--5--5-----5-----------5--5---------|
|---7--7--7--7--------------7--7--------|
|---------------------------------------|
|---------------------------------------|
|---------------------------------------|

Chorus
|---|---|---|---|-
|---|---|---|---| 4x
|-7-|---|-4-|---|-
|-7-|-5-|-4-|-5-|
|-5-|-5-|-2-|-5-|
|---|-3-|---|-3-|

Intro

|-----||do this before starting the next verse
|-----||
|-777-||
|-777-||
|-555-||
|-----||

Verse.
For everyday..bad| |sad      |  | You shot me twice...|| one for love... 
|------------------||--------|  |---------------------||----------------|---|
|------------------||--------|  |---------------------||----------------|---|
|-7777777777777777-||---7--7-|  |---------------------||-7777777777777--|777|
|-7777777777777777-||---7--7-|  |-5555555555555555555-||-7777777777777--|777|
|-5555555555555555-||---5--5-|  |-5555555555555555555-||-5555555555555--|555|
|------------------||--------|  |-3333333333333333333-||----------------|---|
  **************                  *******************    *************

  Dont hang up......   
|--10----------------||-                     -
|-----10--9--8-------||do his untill refrain..
|--------------------||-                     -
|--------------------||
|--------------------||
|--------------------||

Refrain

Chorus

Bridge

So prove im wrong.......im not alright ||
|---------------------------------------||------|------|
|---------------------------------------||-xxxx-|------|
|-9999999999999999999999999-------------||-xxxx-|-7--9-|
|-9999999999999999999999999-55555555555-||-xxxx-|-7--9-|
|-7777777777777777777777777-55555555555-||-xxxx-|-5--7-|
|---------------------------33333333333-||-xxxx-|------|

 so tell me.....complicating......fanciful story
|-------------------------------------------------|
|-------------------------------------------------|
|-9999999999999-----------------------------------|
|-9999999999999---55555555555555----7777777777777-|
|-7777777777777---55555555555555----7777777777777-|
|-----------------33333333333333----5555555555555-|

|--10b10b10b10b10b10b-||-                                               -
|---------------------|| this one is where they become silent, where the 
|---------------------|| the drum is played solo.
|---------------------||-                                               -
|---------------------||
|---------------------||

Chorus
Its time to say goodbye                ||to all the.......|
|--------------------------------------||-----------||----|----|----|
|--------------------------------------||-----------||----|----|----|
|---------------777-999-111111-1212-14-||-------x-x-||----|-4>-|----|
|---------------xxx-xxx-x-x-x--x-x---x-||-------x-x-||-5>-|-4>-|-5>-|
|---------------555-777-9-9-9--1010-12-||-------x-x-||-5>-|-2>-|-5>-|
|--------------------------------------||-------x-x-||-3>-|----|-3>-|
Its time to say goodbye..
|---------------999-101010-121212-101010-999--||Repeat until the sond ends.
|---------------------------------------------||
|---------------------------------------------||
|---------------------------------------------||
|---------------------------------------------||
|---------------------------------------------||

End with 
|-----|
|-----|
|-777-|
|-777-|
|-555-|
|-----|

Finally its all done.
Please rate the two tabs i made.
Just listen to the song to get the timing.




any comments
here is my e-add:





Comments


Popular Vanilla Sky tabs & chords
Umbrella Bass Tabs
Broken Car Chords
Umbrella 2 Chords
Umbrella 3 Chords
Devastante Tabs
Goodbye Tabs
Just Dance Tabs
Se Vuoi Andare Vai Tabs
Umbrella 5 Tabs
Umbrella Ukulele


Song lyrics



↑ Back to top | Tablatures and chords are parodies/interpretations of the original songs. You may use it for private study, scholarship, research or language learning purposes only
© 2014 AZChords.com Contact us | Privacy policy | DMCA | Add/correct tabs | Request tabs | Top 50 tabs