>
 >
Goodbye

Goodbye Guitar Tabs

Vanilla Sky - Goodbye chords, tabs, tablatures, lyrics

Guitar lessons | Add/correct | Request | Top 50 tabs Artists:  A B C D E F G H I J K L M N O P Q R S T U V W X Y Z 0-9

Goodbye Guitar Tabs – Vanilla Sky

CD, Sheet music, Poster

Do you like Goodbye? Share with your friends now
Bass TabsTabsTabs v2
This one is surely 97% accurate.
And this tab is only accurate in Rythm guitar.
I'm still figuring out the Lead guitar.

Intro


|-2222222222222222-| => do this until verse 1 starts...
|-3333333333333333-|
|-2222222222222222-|
|------------------|
|------------------|
|------------------|

Verse I.
 This would be like .....||If you don't care about december
|-22222222222222222------||-3333333333333333333333333333333-|
|-33333333333333333------||-3333333333333333333333333333333-|
|-22222222222222222------||-2222222222222222222222222222222-|
|------------------------||---------------------------------|
|------------------------||---------------------------------|
|------------------------||-3333333333333333333333333333333-|
 I tell you ....
|-22222222222222||
|-33333333333333||
|-22222222222222||
|---------------||
|---------------||
|---------------||

Verse II.
 Usual session to  ...... ||I will shortly .... 
|-22222222222222222222222-||-333333333333333333-|
|-33333333333333333333333-||-333333333333333333-|
|-22222222222222222222222-||-222222222222222222-|
|-------------------------||--------------------|
|-------------------------||--------------------|
|-------------------------||-333333333333333333-|
 And be honest ...
|-2222222222222222-|
|-3333333333333333-|
|-2222222222222222-|
|------------------|
|------------------|
|------------------|


Refrain - part 1.
 Your being deserving for a long time
|----------------------------------------|======|
|----------------------------------------|      |
|----------------------------------------|-    -|
|-777777777777777777777777777777-5555555-|BREAK | 
|-777777777777777777777777777777-5555555-|-    -|
|-555555555555555555555555555555-3333333-|======|
  ****************************** *******

Chorus 
Its time to say goodbye ....
|-------------------------------------------------------------------------------||
|-------------------------------------------------------------------------------||
|--------------7777777777----------------------44444444444444444----------------||
|--------------7777777777-55555555555555555555-44444444444444444-555555555555555||Repeat4x      
|--------------5555555555-55555555555555555555-22222222222222222-555555555555555||
|-------------------------33333333333333333333-------------------333333333333355||


Intro



Verse III
  For everyday..bad||sad     |  | You shot me twice...|| one for love... 
|------------------||--------|  |---------------------||----------------|---|
|------------------||--------|  |---------------------||----------------|---|
|-7777777777777777-||---7--7-|  |---------------------||-7777777777777--|777|
|-7777777777777777-||---7--7-|  |-5555555555555555555-||-7777777777777--|777|
|-5555555555555555-||---5--5-|  |-5555555555555555555-||-5555555555555--|555|
|------------------||--------|  |-3333333333333333333-||----------------|---|
  **************                  *******************    *************

  Dont hang up......  ||you    | | Dont wanna end this..|| But being... |  
|---------------------||-------| |----------------------||--------------|
|---------------------||-------| |----------------------||--------------|
|-777-7--777-7--777-7-||--7--7-| |----------------------||-777-7--777-7-|
|-777-7--777-7--777-7-||--7--7-| |-555-5--555-5--555-5--||-777-7--777-7-|
|-555-5--555-5--555-5-||--5--5-| |-555-5--555-5--555-5--||-555-5--555-5-|
|---------------------||-------| |-333-3--333-3--333-3--||--------------|
  ***    ***    ***                ***    ***    ***       ***    ***

Refrain 
 Your being deserving for a long time
|------------------------------------|
|------------------------------------|
|------------------------------------|
|-7~----------------------------5~---|
|-7~----------------------------5~---|
|-5~----------------------------3~---|

Chorus


Bridge
 So prove im wrong.......im not alright ||
|---------------------------------------||------|------|
|---------------------------------------||-xxxx-|------|
|-9999999999999999999999999-------------||-xxxx-|-7--9-|
|-9999999999999999999999999-55555555555-||-xxxx-|-7--9-|
|-7777777777777777777777777-55555555555-||-xxxx-|-5--7-|
|---------------------------33333333333-||-xxxx-|------|

 so tell me.....complicating......fanciful story
|-------------------------------------------------|
|-------------------------------------------------|
|-9999999999999-----------------------------------|
|-9999999999999---55555555555555----7777777777777-|
|-7777777777777---55555555555555----7777777777777-|
|-----------------33333333333333----5555555555555-|

drum solo

Chorus
 Its time to say goodbye |to all the...   ||Its time to say goodbye
|------------------------|----------------||-------------------------|
|------------------------|----------------||-------------------------|
|---------------77777777-|-------x-x------||----------------44444444-|
|---------------77777777-|-------x-x-5555-||----------------44444444-|
|---------------55555555-|-------x-x-5555-||----------------22222222-|
|------------------------|-------x-x-3333-||-------------------------|
 To all the things .....                                                   
|------------------------|                                                    
|------------------------|                                                    
|------------------------|                                                    
|-----------555555555555-|                                                       
|-----------555555555555-|                                        
|-----------333333333333-|                                            
(Repeat 4x until the sentence "Its time to sail away")

End with:
|-------|
|-------|
|-7-7-7-|
|-7-7-7-|
|-5-5-5-|
|-------|





Comments


Popular Vanilla Sky tabs & chords
Umbrella Bass Tabs
Break It Out Tabs
Goodbye 1 Tabs
Just Dance Tabs
Se Vuoi Andare Vai Tabs
Umbrella Tabs
Umbrella 5 Tabs
Umbrella 7 Tabs
Broken Car Ukulele
Umbrella Ukulele


Song lyrics



↑ Back to top | Tablatures and chords are parodies/interpretations of the original songs. You may use it for private study, scholarship, research or language learning purposes only
© 2014 AZChords.com Contact us | Privacy policy | DMCA | Add/correct tabs | Request tabs | Top 50 tabs