» » »

A Thousand Miles Tabs (ver.2)

Artists:  A B C D E F G H I J K L M N O P Q R S T U V W X Y Z # 

A Thousand Miles Tabs (ver.2)

Vanilla Sky
Rating:
4/5 (4 votes)

Hard to play? Try these video lessons and learn fast.
                A Thousand Miles
         IV-ARL(S.Y.2007-2008)
         LPNHS

Tuning: Drop D

Intro:
E------------------------------------------------------------------------------|
B------------------------------------------------------------------------------|
G-----4---4-3---3------------4---4-3---3---------------------4---4-3---3-------|
D-----------------4----1-----------------4---4---4---1-2-1---------------4-----|
A-2-----2-----2----------4-2---2-----2-----2---2---2-------4---2-----2---------|
E------------------------------------------------------------------------------|
                                                                              
E------------------------|
B------------------------|
G------------------------|
D-1-----1-----4----------|
A---4-2---4-2---4--------|
E------------------------|


Verse1:(Rhythm)
e|-------------------------|
B|-------------------------|
G|-------------------------| 
D|-2------4----------------|   4X \
A|-2--H---4----------------|       \
E|-2------4----------------|        \
                                     \
                                      \  2x
e|-------------------------|          /  
B|-------------------------|         /
G|-------------------------|        /
D|-2------4--------1-------|   2X  /
A|-2--H---4----H---1-------|
E|-2------4--------1-------|


Refrain:
and i need you....
e|-------------------------|
B|-------------------------|
G|-------------------------| 
D|-2------4--------1-------|   2X 
A|-2--H---4----H---1-------|
E|-2------4--------1-------|

and now i wonder...

e|-------------------------|
B|-------------------------|
G|-------------------------| 
D|-2------4----------------|   isang beses lng 2
A|-2------4----------------|
E|-2------4----------------|


Chorus:

if i could fall into the sky...

e|---------------------------|
B|---------------------------|
G|---------------------------| 
D|-2------4-----1-----2------|   3X 2loy-2loy n mblis ang strum
A|-2------4-----1-----2------|
E|-2------4-----1-----2------|

if i could just see you tonight...

e|---------------------------|
B|---------------------------|
G|---------------------------| 
D|-6------8-----4------------|   isang beses lng 2...
A|-6------8-----4------------|
E|-6------8-----4------------|


Repeat Intro...(sabay ang verse1)

Verse 2:
e|-------------------------|
B|-------------------------|
G|-------------------------| 
D|-2------4----------------|   4X \
A|-2--H---4----------------|       \
E|-2------4----------------|        \
                                     \
                                      \  2x
e|-------------------------|          /  
B|-------------------------|         /
G|-------------------------|        /
D|-2------4--------1-------|   2X  /
A|-2--H---4----H---1-------|
E|-2------4--------1-------|

A Thousand Miles
         IV-ARL(S.Y.2007-2008)
         LPNHS

Intro:
E------------------------------------------------------------------------------|
B------------------------------------------------------------------------------|
G-----4---4-3---3------------4---4-3---3---------------------4---4-3---3-------|
D-----------------4----1-----------------4---4---4---1-2-1---------------4-----|
A-2-----2-----2----------4-2---2-----2-----2---2---2-------4---2-----2---------|
E------------------------------------------------------------------------------|
                                                                              
E------------------------|
B------------------------|
G------------------------|
D-1-----1-----4----------|
A---4-2---4-2---4--------|
E------------------------|


Verse1:(Rhythm)
e|-------------------------|
B|-------------------------|
G|-------------------------| 
D|-2------4----------------|   4X \
A|-2--H---4----------------|       \
E|-2------4----------------|        \
                                     \
                                      \  2x
e|-------------------------|          /  
B|-------------------------|         /
G|-------------------------|        /
D|-2------4--------1-------|   2X  /
A|-2--H---4----H---1-------|
E|-2------4--------1-------|


Refrain:
and i need you....
e|-------------------------|
B|-------------------------|
G|-------------------------| 
D|-2------4--------1-------|   2X 
A|-2--H---4----H---1-------|
E|-2------4--------1-------|

and now i wonder...

e|-------------------------|
B|-------------------------|
G|-------------------------| 
D|-2------4----------------|   isang beses lng 2
A|-2------4----------------|
E|-2------4----------------|


Chorus:

if i could fall into the sky...

e|---------------------------|
B|---------------------------|
G|---------------------------| 
D|-2------4-----1-----2------|   3X 2loy-2loy n mblis ang strum
A|-2------4-----1-----2------|
E|-2------4-----1-----2------|

if i could just see you tonight...

E------------------------------------------------------------------------------|
B------------------------------------------------------------------------------|
G----4---4-3---3------------------4---4-3---3----------------------------------|
D----------------4--4---4---1-----------------4---4---4---1-2-1----------------|
A-2----2-----2----2---2---2---4-2---2-----2-----2---2---2-------4--------------|
E------------------------------------------------------------------------------| 


Bridge:

Lead:

E------------------------------------------------------------------------------|
B------------------------------------------------------------------------------|
G----4---4-3---3------------------4---4-3---3----------------------------------|
D----------------4--4---4---1-----------------4---4---4---1-2-1----------------|
A-2----2-----2----2---2---2---4-2---2-----2-----2---2---2-------4--------------|
E------------------------------------------------------------------------------| 

Rhythm:

e|---------------------------|        
B|---------------------------|       
G|---------------------------| 
D|-6------8-----9-----11-----|   3X  
A|-6------8-----9-----11-----|
E|-6------8-----9-----11-----|       


e|---------------------------|
B|---------------------------|
G|---------------------------| 
D|-6------8-----4------------|   
A|-6------8-----4------------|
E|-6------8-----4------------|

repeat verse...
repeat refrain...
repeat chorus(2x)...

if i could just see you...if i could just hold you,tonight

e|---------------------------|
B|---------------------------|
G|---------------------------| 
D|-6------8-----4------------|   2x
A|-6------8-----4------------|
E|-6------8-----4------------|

Outro:(parang sa intro n lead)

tapos tapos n....

yEAH!

hOpe n nSa mgus2han nyo 2..
saNa taMa i2.,pe0 xur kMe...
wA xe daLang gTara ng gNwa i2 eh,...

peo taMa tLaga 2...

ui...diNno boy...try moH kung tAma..

bLeHhH!.,
            
Hard to play? Try these video lessons and learn fast. | Correct




comments powered by Disqus
↑ Back to top | Tablatures and chords are parodies/interpretations of the original songs. You may use it for private study, scholarship, research or language learning purposes only