>
 >
A Thousand Miles

A Thousand Miles Guitar Tabs

Vanilla Sky - A Thousand Miles chords, tabs, tablatures, lyrics

Guitar lessons | Add/correct | Request | Top 50 tabs Artists:  A B C D E F G H I J K L M N O P Q R S T U V W X Y Z 0-9

A Thousand Miles Guitar Tabs – Vanilla Sky

CD, Sheet music, Poster

Do you like A Thousand Miles? Share with your friends now
ChordsTabsTabs v2Tabs v3Ukulele
this is my 3rd tab acctually..,and i'm sure of this tab..,it is 90%!

song-a thousand miles
band-vanilla sky

tuning:
=DROP D=

-legends-
x-palm mute
/slide up
\slide down

-intro-
git.1
           (I)                            (II)
e|-----7--7-----6-----6-----|-----7--7-----6-----6----------------|
b|-4/5-------5-----5-----7~-|-4/5-------5-----5------7--5--4h5----|
g|--------------------------|-------------------------------------|
d|--------------------------|-------------------------------------|
a|--------------------------|-------------------------------------|
d|--------------------------|-------------------------------------|
           (III)                          (IV)
e|-----7--7-----6-----6---------|---------------------------------|
b|-4/5-------5-----5-----7break-|-5-4h5-4-4h5------7--4--4h5------|
g|------------------------------|---------------4-------------4~--|
d|------------------------------|---------------------------------|
a|------------------------------|---------------------------------|
d|------------------------------|---------------------------------|

git.2
           (I)                            (II)
e|--------------------------|-------------------------------------|
b|-4--4--4h5--7-------------|-4--4--4h5--7---7--------------------|
g|------------------4~------|---------------------4--4--4---------|
d|--------------------------|-------------------------------------|
a|--------------------------|-------------------------------------|
d|--------------------------|-------------------------------------|
           (III)                          (IV)
e|------------------------------|---------------------------------|
b|--4--4--4h5--7----7break------|--------------------7--4--4h5----|
g|------------------------------|-4-4h6-4-4h6---4-------------4~--|
d|------------------------------|---------------------------------|
a|------------------------------|---------------------------------|
d|------------------------------|---------------------------------|

git.3
(play it when the drum beats)
g|--------------------------|-----------------------------------|
d|--------------------------|-----------------------------------|
a|--7----9----9----6break---|-6--6h7-6-6h7--6--9--6-6h7---------|
d|--------------------------|-----------------------------9-----|

-verseI-

git.3 only

g|--------------------------------------------------- |
d|-------------                                    -- |
a|--7/9--6/7---  2x                                -- |
d|-------------                                    -- |
                                                    |
g|-------------------                               |-2x
d|-------------------                               |
a|--77--99--6666----- 2x                            |
d|-------------------                               |
(sabayan nyo to ng part(II)ng intro ng git.1 and 2)-|

-refrainI-

git.2

e|------------------|
b|------------------|
g|--444--888--6-----|
d|--444--888--6-----| 3x
a|--222--666--4-----|
d|------------------|
    xxx  xxx  x

git.1

e|---------------------|
b|---------------------|
g|--999--111111--8-----|
d|--999--111111--8-----| 3x
a|--777---9-9-9--6-----|
d|---------------------|
    xxx   x x x  x

both git.1 and 2

e|--------------|
b|--------------|
g|--4---11~-----|
d|--4---11~-----|
a|--2----9~-----|
d|--------------|

-chorusI-

both git.1 and 2

e|--------------------------|
b|--------------------------|
g|------11----8----9--------|
d|--7---11(4)-8(4)-9(4)-----|
a|--7(4)-9----6----7--------|
d|--7-----------------------|

e|-------------|
b|-------------|
g|--4--3--6----|
d|--4--3--4----|
a|--2--1-------|
d|-------------|

-post chorus-

git.2

e|-----------------------|
b|-----------------------|
g|--999-1111--888888-----|
d|--999-1111--888888-----|  2x
a|--777--9-9--666666-----|
d|-----------------------|
(sabayan ulit ng part(II)ng intro ng git.1 )

-verse II-

e|----------------------|
b|----------------------|
g|--999-11--888--9------|
d|--999-11--888--9------| 2x
a|--777--9--666--7------|
d|----------------------|
(repeat post chorus)

git.1

e|---11-11-11--9-----------------------------------------|
b|----------------12-12-12--11---4-4-4--2----------------|
g|------------------------------------------4-4-4--3-----|
d|-------------------------------------------------------|
a|-------------------------------------------------------|
d|-------------------------------------------------------|
(tiyempuhan nyo na lang kung saan papasok )

-refrain II-

git.1

e|------------------|
b|------------------|
g|--xxx--888--6-----|
d|--xxx--xxx--x-----| 3x
a|--222--666--4-----|
d|------------------|

git.2

e|------------|
b|------------|
g|------------|
d|-444444444--| 3x
a|-222222222--|
d|------------|
   xxxxxxxxx

both git.1 and 2

e|--------------|
b|--------------|
g|--4---11~-----|
d|--4---11~-----|
a|--2----9~-----|
d|--------------|

-chorusII-

both git.1 and 2

e|--------------------------|
b|--------------------------|
g|------11----8----9--------|
d|--7---11(4)-8(4)-9(4)-----|
a|--7(4)-9----6----7--------|
d|--7-----------------------|

e|-------------|
b|-------------|
g|--4--3--6~---|
d|--4--3--4~---|
a|--2--1-------|
d|-------------|

-repeat post chorus(4x)-

-bridge-

both git.1 and 2

e|----------------|
b|----------------|
g|----------------|
d|--1--1--2--4----| 4x
a|--1--1--2--4----|
d|--1--1--2--4----|

-repeat verse I-

git.1

e|---11-11-11--9-----------------------------------------|
b|----------------12-12-12--11---7-7-7--5---4-4-4--2-----|
g|-------------------------------------------------------|
d|-------------------------------------------------------|
a|-------------------------------------------------------|
d|-------------------------------------------------------|
(tiyempuhan nyo na lnag kung saan papasok )

-repeat refrain-
(lagyan ng break sa huli)

both git.1 and 2

e|--------------|
b|--------------|
g|--4---11~-----|
d|--4---11~-----|
a|--2----9------|
d|--------------|

-chorusIII-

both git.1 and 2

e|--------------------------|
b|--------------------------|
g|------11----8----9--------|
d|--7---11(4)-8(4)-9(4)-----| 2x
a|--7(4)-9----6----7--------|
d|--7-----------------------|
    xxxxpalm mutedxxxx

git. 3

g|-------------|
d|---------4~--|
a|-1--2--4-----|
d|-------------|

(then)
git.2

e|------------|
b|------------|
g|------------|
d|-444444444--|
a|-222222222--|
d|------------|
   xxxxxxxxx
(i'm not sure about this..sorry..hehe)
e|-----------|
b|-----------|
g|-----------|
d|-98898898--|
a|-----------|
d|-----------|
   xxxxxxxx
(after that..)

e|-------------|
b|-------------|
g|--4--3--6----|
d|--4--3--4----|
a|--2--1-------|
d|-------------|

-repeat chorus-
-then repeat the whole intro except part IV both git.1 and 2-

git.1

e|--------------------------|
b|--5--4h5--4--4h5--4-------|
g|---------------------4~---|
d|--------------------------|
a|--------------------------|
d|--------------------------|

git. 2

e|--------------------------|
b|--------------------------|
g|--4--4h6--4--4h6--4--4~---|
d|--------------------------|
a|--------------------------|
d|--------------------------|


and that's it..
i hope you like it..
pinaghirapan ko yan..
matagal ko ng alam yan eh..
kya lang ngayon ko lang na itabbed..
sana magustuhan nyo..

+binabati ko nga pala yung mga ka banda ko yung dishearten band+
haha..sorry mga pre kung tinabbed ko to..ala kasi ako magawa eh..

ENJOY!

*dishearten_band*
ken_14





Comments


Popular Vanilla Sky tabs & chords
Umbrella Bass Tabs
Waiting Patiently Bass Tabs
Broken Car Chords
Vivere Diversi Chords
Break It Out Tabs
Just Dance Tabs
On & On Tabs
Umbrella 1 Tabs
Umbrella 3 Tabs
Umbrella 7 Tabs


Song lyrics



↑ Back to top | Tablatures and chords are parodies/interpretations of the original songs. You may use it for private study, scholarship, research or language learning purposes only
© 2014 AZChords.com Contact us | Privacy policy | DMCA | Add/correct tabs | Request tabs | Top 50 tabs