» » »

Van Halen, On Fire Tabs (ver.1)

Artists:  A B C D E F G H I J K L M N O P Q R S T U V W X Y Z # 

On Fire Tabs (ver.1)

Van Halen Tabs
Rating:
0/5 (0 votes)
On Fire lessons Tabs too difficult? Try these video lessons and learn fast
                On fire
                                      By
                                   Van Halen
                                
                         

Ok i´ve been all over the web trying to find this, but haven´t 
seen anything but the solo, so i thought i´d do it by myself.
This is a rather tricky song to figure out, because of all small 
licks, so everything might not be correct...                                             

Use a delay,set at about 250 ms or so,plus a flanger to give 
that ominous distorted sound that Eddie gets.
There´s bits of lyric to help you keep up.
Anyway, here goes:


Key:

b  : bend
bf : bend full
x  : noise
w  : whammy
pm : palmmute
(5): natural harmonic
\  : slide downwards
/  : slide upwards
T  : tap note (i never tap using the pick,
               finger-tapping gives a greater sound)

Intro:
                       
|----------------------------------------------------------|
|----------------------------------------------------------|
|-9-7-5-7-4-------9-7-5-7--2*b------17b19wbw---------------|
|-9-7-5-7-4-------9-7-5-7----------------------------------|
|-7-5-3-5-2-------7-5-3-5----------------------------------|
|-----------3bxxx------------------------------------------|

*:bend 2nd and start picking fast while sliding up to 17th fret without 
  actually fretting,thus causing harmonics.

Then do this:

|-0-(5)-(5)-(5)-(5)---|     Strike harmonic at 5th then make noise on muted 
|------x---x---x---x--|     strings g and b.The rythm may feel a bit awkward
|-----x-x-x-x-x-x-x-x-|     at first,but you`ll soon get the hang of it.
|---------------------|
|---------------------|
|---------------------|

Pre verse:
                                                      harm........
|-----------------------------------------------------------|-0----------|
|-----------------------------------------------------------|--(5)-(7)---|
|---------------------------------------------------------7-|----(5)-(7)-|
|---2--2-5b--2--2-5-----2--2-5b--2--2-7-----2--2-5b--2--2-7-|------------|
|-----------------5-------------------5-------------------5-|------------|
|-0---------------3---0---------------5---0-----------------|------------|

verse 1:
  bf Pm.................
|--------------------------------------------------5---|
|--------------------------------------------------5---|
|-5---------------------------7----7----7------5-------|
|-5----5555555\--5555555/-----7----7----7--5-7---7-----|
|-3----5555555\--5555555/--0--5-0--5-0--5--------------|
|------3333333\--3333333/------------------------------|
      "turn your radio`s ooon!, i´ll be a right there"
 
(note:  means slide >:up or <:down, by the way the whole chord is slided)

|-----------------------|-------------------|
|-----------------------|-------------------|
|-----------------------|-2bf-x-x-x-x-x-x-x-|
|---2--2-5b--2--2-5-----|-------------------|
|-----------------5-----|-------------------|
|-0---------------3-----|-------------------|
                     "yes i will"

  bf Pm.................
|--------------------------------------------------5---|
|--------------------------------------------------5---|
|-5---------------------------7----7----7----------7---|
|-5----5555555\--5555555/-----7----7----7----------7---|
|-3----5555555\--5555555/--0--5-0--5-0--5-0--5-----5---|
|------3333333\--3333333/------------------------------|                    
       "turn me up real loud,             i´m in your...

                            T    T    T    T    T    T    T

|-----------------------|-----------5^12^7^12^9^12^7^12^5^12^9-|
|-----------------------|-5^12^7^12----------------------------|
|-----------------------|--------------------------------------|
|---2--2-5b--2--2-5-----|--------------------------------------|
|-----------------5-----|--------------------------------------|
|-0---------------3-----|--------------------------------------|
  eeeeaaaarrrrss!"       This tapped riff is played really fast!

For the prechorus play:

Pm         ............... Pm      ...............      
|--------------------------|-----------------------|
|--------------------------|-----------------------|
|-4------------------------|-2---------------------|
|-4--5--4--4-4-4-4-4-4-4-4-|-5--4--4-4-4-4-4-4-4-4-|
|-2--5--4--4-4-4-4-4-4-4-4-|-5--4--4-4-4-4-4-4-4-4-|
|----3--2--2-2-2-2-2-2-2-2-|-3--2--2-2-2-2-2-2-2-2-|
  B5 G5 F#5                  G5 F#5
        ´n´ i´m hangin´ ten now baby,

Pm      ............... Pm      ...............
|-----------------------|-----------------------|
|-5---------------------|-5---------------------|
|-5--4--4-4-4-4-4-4-4-4-|-5--4--4-4-4-4-4-4-4-4-|
|-5--4--4-4-4-4-4-4-4-4-|-5--4--4-4-4-4-4-4-4-4-|
|-3--2--2-2-2-2-2-2-2-2-|-3--2--2-2-2-2-2-2-2-2-|
|-----------------------|-----------------------|
  C5 B5                   C5 B5
        as i ride your sonic ooh wawe    (good god, y´all)

Palm-mute all F#s and B`s 
These chords should be strummed pretty hard...

Chorus:

  G#  G# G   G  A#  A#
|-----------------------|
|-----------------------|
|-15--15-14--14-17--17--|
|-15--15-14--14-17--17--|
|-13--13-12--12-15--15--|
|-----------------------|
                    "On fireeeeeeee"

play the chorus 4 times
then do this:   (4 times)

|------2--------0--------3--------2----|
|------2--------0--------3--------2----|
|---------------------5--------4-------|
|---4--------5--------5--------4-------|
|---4--------5-----0--3-----0--2-------|
|0--2-----0--3-----------------------7\|

After that play this while shouting "Fireeeee"

PM..................
|--------------------------------------|
|--------------------------------------|
|--------------------------------------|
|--------------------------------------|
|---------------------3-----0--2-------|
|0--2--2--0--3--3--0-----------------7\|

Solo:

|------------------------------------------------------------------------|
|------------------------------------------------------------------------|
|----------------------4h5p4-------------------------------5h7p5---------|
|---------------4h5h7---------7--6h7h9------------5--7--9-------h9-5h7h9-|
|4/7-----4h5h7-----------------------------5h7h9-------------------------|
|------------------------------------------------------------------------|

|------------------------------------------------------------------------|
|------------------------------------------------------------------------|
|------------------------6h7p6-----6--------------------------8----------|
|---------------6--7--9---------9-----7h9-------------8h9h11-------------|
|--------6h7h9--------------------------------7h9h11---------------------|
|------------------------------------------------------------------------|

|------------------------------------------------------------------------|
|------------------------------------------------------------------------|
|---------------------------------------9h10p9---------------------------|
|----------------------------9--10--12----------12--9--11--13------------|
|-------------------9h10h12----------------------------------------------|
|------11/15-------------------------------------------------------------|

|------------------------------------------------------------------------|
|------------------------------------------------------------------------|
|---------------------10h12p10------10-----------------------------------|
|----------10--12--14------------14------12h14---------------12--14--16--|
|-10h12h14---------------------------------------12h14h16----------------|
|------------------------------------------------------------------------|

|------------------------------------------------------------------------|
|------------------------------------------------------------------------|
|12h14p12------12--14--16--12h16p12h16p12h16p12--------12\---------------|
|----------16------------------------------------------------------------|
|------------------------------------------------------------------------|
|------------------------------------------------------------------------|



Verse 2:

Lay your bodies down, i´m in your beds, your beds
Pull your headphones on, i´m in your heads, ah
        
´n´ i´m hangin´ten now baby, as i ride your sonic, ooh wve
(good god, y´all)

After the solo, play the pre-verse part again (the harmonics all being on
the 5th fret,you´ll get the point if you listen.)then do the "beep" part 
again, a little bit longer(for the drums to fill in)then its verse again with 
some minor changes not worth tabbing,then play the chorus until end.
Since the recorded version fades out at the end, i haven´t been able to figure 
out a fitting end yet.
Once again, this might not be totally correct, but it does sound pretty good. 
If you´ve got any comments or so just let me know.
            

comments powered by Disqus
↑ Back to top | Van Halen Tabs for On Fire. Lyrics for acoustic guitar and electric guitar. Tablatures and chords are parodies/interpretations of the original songs. You may use it for private study, scholarship, research or language learning purposes only