» » »

Van Halen, On Fire Tabs (ver.3)

Artists:  A B C D E F G H I J K L M N O P Q R S T U V W X Y Z # 

On Fire Tabs (ver.3)

Van Halen Tabs
 Rating:
4/5 (4 votes)
On Fire lessons Tabs too difficult? Try these video lessons and learn fast
                VAN HALEN - ON FIRE
(Van Halen, 1978)

Key
= after note = vibrato
^ after note = heavy vibrato 
\ = slide down
/ = slide up
+ = tap
h = hammer
p = pull
n = natural harmonic
s = pinching harmonic (squeal)
* = tremolo pick
t = trill
b = bend
|-3-| = triplet

n number above the tab = play the first part then the first finishing part
			 play the first part a second time and then play the second finishing part
			 etc.

Tune Down 1/2 Step

Riff 1

Eb --------------------------------------
Bb --------------------------------------
Gb -9----7----5----7----4----------------
Db -9----7----5----7----4----------------
Ab -7----5----3----5----2----------------
Eb --------------------------------------

Riff 2

Eb --------n5--------n5-
Bb ---n5--------n5------
Gb -X----X----X----X----
Db ---------------------
Ab ---------------------
Eb ---------------------

Riff 3

Eb ------------------------------------------------------------
Bb ------------------------------------------------------------
Gb ------------------------7-----------------------------------
Db ------------------------7----------------------------7---5--
Ab -----7---7-10-----7---7-5---------7---7-10-----7---7-7---5--
Eb -0-0---0------0-0---0---------0-0---0------0-0---0---5---3--

Riff 4

Eb ---------------------------------------------------------------
Bb ---------------------------------------------------------------
Gb -9----9-----9-----9-----9-----9-7----7-----7-----7-----7---7-7-
Db -9----9-----9-----9-----9-----9-7----7-----7-----7-----7---7-7-
Ab -7--7-7-----7-----7-----7-----7-5--5-5-5-5-5-5-5-5-5-5-5-5-5-5-
Eb --------0-0---0-0---0-0---0-0----------------------------------

Riff 5

Eb --------------------------------------------------------------------------------------------------------------------------
Bb --------------------------------------------------------------------------------------------------------------------------
Gb ------------------------------------------------------7--7-6------------------------7--7-6--------------------------------
Db -4----------------------5--5-4------------------------7--7-6------------------------7--7-6--------------------------------
Ab -4----------------------5--5-4------------------------5--5-4--4-4-4-4-4-4-4-4-4-4-4-5--5-4--4-4-4-4-4-4-4-4-4-4-4-4-4-4-4-
Eb -2--2-2-2-2-2-2-2-2-2-2-3--3-2--2-2-2-2-2-2-2-2-2-2-2---------------------------------------------------------------------

Riff 6

Eb -3--3-2--2-5--------------
Bb -5--5-3--3-5--------------
Gb --------------------------
Db --------------------------
Ab --------------------------
Eb ---------------0-0--0--0--

Riff 7

Eb -----2-----0-----3-----2-----
Bb -----2-----0-----3-----2-----
Gb -----------------------------
Db -----------------------------
Ab -------------2-3---0-2-------
Eb -0-2---2-3-------------------

Riff 8

Eb ----------------------------
Bb ----------------------------
Gb ----------------------------
Db ----------------------------
Ab ---------------3---0-2------
Eb -0-2-2-0-3-3-0--------------

Order

Riff 1 x 2
Riff 2 x 2
Riff 3 x 2
Riff 4 x 1
Riff 3 x 1
Riff 4 x 1
Riff 3 x 1
Riff 5 x 1
Riff 6 x 4
Riff 7 x 4
Riff 8 x 4
Solo
Riff 3 x 2
Riff 2 x 4
Riff 4 x 1
Riff 3 x 1
Riff 4 x 1
Riff 3 x 1
Riff 5 x 1
Riff 6 x till fade
            
Submit corrections

comments powered by Disqus
↑ Back to top | Van Halen Tabs for On Fire. Lyrics for acoustic guitar and electric guitar. Tablatures and chords are parodies/interpretations of the original songs. You may use it for private study, scholarship, research or language learning purposes only