» » »

Van Halen, Ain't Talkin Bout Love Bass tabs (ver.1)

Artists:  A B C D E F G H I J K L M N O P Q R S T U V W X Y Z # 

Ain't Talkin Bout Love Bass tabs (ver.1)

Van Halen Tabs
Rating:
0/5 (0 votes)
Ain't Talkin Bout Love lessons Tabs too difficult? Try these video lessons and learn fast
                -------------------------------------------------------------------------------------------------
-------------------------------------------------------------------------------------------------


Tuning: Half-Step Down (from low to high: Eb,Ab,Db,Gb)

   Intro

                   H   Q  E E   E E E E E E E E   E E E Q  E E E   E E E E E E E E   E E E Q. E E
Gb|--------------|-r---r--r---|-----------------|----------------|-----------------|--------------|
Db|-7-bar--------|-e---e--e---|-----------------|----------------|-----------------|--------------|
Ab|-rest---------|-s---s--s---|-----------------|-------3--3-2-3-|-----------------|-------3--2---|
Eb|--------------|-t---t--t-3/|-5-5-5-5-5-5-3-3-|-3-3-0----------|-5-5-5-5-5-5-3-3-|-3-3-0------3-|
    
                                                                                Verse 1

    E E E E E E E E   E E E Q. E E   E E E E E E E E   E E E Q  Q  E              E E E E E E E E
Gb|-----------------|--------------|-----------------|------------------------||------------------|
Db|-----------------|--------------|---------------5-|------------------------||*-----------------|
Ab|-----------------|-------3--2-3-|-----------------|-------3----------------||*-----------------|
Eb|-5-5-5-5-5-5-3-3-|-3-3-0--------|-5-5-5-5-5-5-3---|-3-3-0----2--3----------||--5-5-5-5-5-5-3-3-|

                      Chorus

    E E E Q  E E E 4x   E E E E E E E E   E E E Q  E E E 3x    E E E E E E E E   E E E Q  E E E
Gb|-----------------||------------------|-----------------||-------------------|------------------|
Db|----------------*||*-----------------|----------------*||-----------------5-|------------------|
Ab|-------3--3-2-3-*||*-----------------|-------3--3-2-3-*||-------------------|-------3--3-2-3---|
Eb|-3-3-0-----------||--5-5-5-5-5-5-3-3-|-3-3-0-----------||---5-5-5-5-5-5-3---|-3-3-0------------|

    Verse 2                                                                      Chorus

      E E E E E E E E   E E E Q  E E E 3x  E E E E E E E E   E E E Q  Q  E        E E E E E E E E
Gb||------------------|-----------------||-----------------|------------------||------------------|
Db||*-----------------|----------------*||-----------------|------------------||*-----------------|
Ab||*-----------------|-------3--3-2-3-*||-----------------|-------3--2-------||*-----------------|
Eb||--5-5-5-5-5-5-3-3-|-3-3-0-----------||-5-5-5-5-5-5-3-3-|-3-3-0-------3----||--5-5-5-5-5-5-3-3-|



    E E E Q  E E E         E E E E E E E E   E E E Q  Q  E   E E E E E E E E   E E E E E E E E
Gb|-----------------||---------------------|---------------|-----------------|--------------------|
Db|----------------*||---------------------|---------------|---------------5-|---------------5----|
Ab|-------3--3-2-3-*||---------------------|-------3--2----|-----------------|-------------7------|
Eb|-3-3-0-----------||-----5-5-5-5-5-5-3-3-|-3-3-0-------3-|-5-5-5-5-5-5-3---|-3-3-3-3-3-3--------|

   Guitar Solo

    E E E E E E Q  + Q  E Q  E E E   E E E E E E Q  + Q  E Q  E Q    E E E E E E Q  + Q  E Q. E E
Gb|-9-----9-----7--|(7)------------|-9-----9-----7--|(7)-----------|-9-----9-----7--|(7)----------|
Db|-7-----7-----5--|(5)------------|-7-----7-----5--|(5)-----------|-7-----7-----5--|(5)----------|
Ab|---0-0---0-0----|------3--3-2-3/|---0-0---0-0----|------3--2----|---0-0---0-0----|------3--2-3/|
Eb|----------------|----0----------|----------------|----0------3/-|----------------|----0--------|

                                       Chorus

    E E E E E E E E   E E E E E E E E   E E E E E E E E   E E E Q. E E   E E E E E E E E
Gb|-9-9-9-9-9-9-7-7-|-7-7-7-7-7-7-7-7-|-----------------|--------------|--------------------------|
Db|-7-7-7-7-7-7-5-5-|-5-5-5-5-5-5-5-5-|-7-----7---------|--------------|--------------------------|
Ab|-----------------|-----------------|---0-0---0-7\----|-------3--2-3-|--------------------------|
Eb|-----------------|-----------------|-------------3-3-|-3-3-0--------|-5-5-5-5-5-5-3-3----------|

                                                                                          Verse 3

    E E E Q. E E   E E E E E E E E   E E E Q. E E   E E E E E E E E           + W          H.  Q  +
Gb|--------------|-----------------|--------------|---------------------------|----------|--------|
Db|--------------|-----------------|--------------|---------------5-----------|(5)-------|--------|
Ab|-------3--2-3-|-----------------|-------3--2-3-|---------------------------|----------|--------|
Eb|-3-3-0--------|-5-5-5-5-5-5-3-3-|-3-3-0--------|-5-5-5-5-5-5-3-------------|----------|-5---3--|



    Q  E Q  E E E     Q. E E E E E     Q  E Q. E E     H+E  E Q    + Q  E Q. E E     H   E E E E  +
Gb|-----------------|------r-----7---|---------------|-------------|---------------|-----r-----7--|
Db|-----------------|----7-e-7-5-----|-5-------------|-------------|---------------|-----e-7-5----|
Ab|------3--3-2-3---|------s---------|------3--2-3---|-------------|------3--2-3---|-----s--------|
Eb|(3)-0------------|-5----t---------|----0----------|-5----0-3----|(3)-0----------|-5---t--------|



    Q  E Q. E E   Q  Q  E E E E   E E E Q. E E   Q  Q  E E E E   E E E Q. E E   Q  E E E E E E
Gb|(7)----------|---------------|--------------|---------------|--------------|-------------------|
Db|-------------|---------------|--------------|---------------|--------------|-------------------|
Ab|------3------|---------------|-------3--2-3-|---------------|-------3--2-3-|-------------------|
Eb|----0----0-3-|-5--5--5-5-3-3-|-3-3-0--------|-5--5--5-5-3-3-|-3-3-0--------|-5--5-5-5-5-3-3----|

                                                             Chorus

    E E E Q. E E   Q  E E E E E E   E E E Q  Q  E              E E E E E E E E   E E E Q  E E E 7x
Gb|--------------|----------------|------------------------||------------------|-----------------||
Db|--------------|----------------|------------------------||*-----------------|----------------*||
Ab|-------3--2-3-|----------------|-------3--2-------------||*-----------------|-------3--3-2-3-*||
Eb|-3-3-0--------|-5--5-5-5-5-3-3-|-3-3-0-------3/---------||--5-5-5-5-5-5-3-3-|-3-3-0-----------||

                                           Guitar Solo

    E E E E E E E E     E E E E E E E E     E E E E E E Q    + Q  E Q. E E     E E E E E E Q      +
Gb|-------------------|-------------------|-9-----9-----7----|(7)------------|-9-----9-----7------|
Db|-------------------|---------------5---|-7-----7-----5----|(5)------------|-7-----7-----5------|
Ab|-------------------|-------------7-----|---0-0---0-0------|------3--2-3/--|---0-0---0-0--------|
Eb|-5-5-5-5-5-5-3-3---|-3-3-3-3-3-3-------|------------------|----0----------|--------------------|

                                                                               Out-Chorus

    Q  E Q  E Q    E E E E E E Q  + Q  E Q. E E   E E E E E E Q    Q   Q  H     E E E E E E E E
Gb|(7)-----------|-9-----9-----7--|(7)----------|-9-----9-----7--|-----r--r---|-------------------|
Db|(5)------2----|-7-----7-----5--|(5)----------|-7-----7-----5--|-----e--e---|-------------------|
Ab|------3----3/-|---0-0---0-0----|------3--2-3/|---0-0---0-0----|-----s--s---|-------------------|
Eb|----0---------|----------------|----0--------|----------------|/12\-t--t---|-5-5-5-5-5-5-3-3---|



    E E E Q. E E      E E E E E E E E      E E E Q. E E      E E E E E E E E      E E E Q. E E
Gb|-----------------|--------------------|-----------------|--------------------|-----------------|
Db|-----------------|--------------------|-----------------|--------------------|-----------------|
Ab|-------3--2-3----|--------------------|-------3--2-3----|--------------------|-------3--2-3----|
Eb|-3-3-0-----------|-5-5-5-5-5-5-3-3----|-3-3-0-----------|-5-5-5-5-5-5-3-3----|-3-3-0-----------|



    E E E E E E E E     E E E Q  E E E     E E E E E E E E     E E E E E E E E 4x  Q  E Q  E Q    +
Gb|-------------------|----------------||--------------------|------------------||----------------|
Db|-------------------|-------2--0-----||*-------------------|-----------------*||----------------|
Ab|-------------------|------------3-2-||*-------------------|-----3-3-3-3-3-3-*||-0--0-2--2-3----|
Eb|-5-5-5-5-5-5-3-3---|-3-3-0----------||--5-5-5-5-5-5-3-3---|-3-3--------------||----------------|



    E E E E E E E E   Q  E Q  E Q  + Q  Q. E E E   Q  E Q  E Q    E E E E E E E E   Q  E Q  E Q   +
Gb|---5-5-5-5-------|--------------|-------------|--------------|-----------------|---------------|
Db|-----------------|--------------|----2--------|--------------|-----------------|---------------|
Ab|(3)--------------|-0--0-2--2----|---------3-2-|-0--0-2--2-3--|-----------------|-0--0-2--2/----|
Eb|-----------0-2-3-|-----------0--|(0)----0-----|--------------|-0-1-2-3-2-3-4-5-|-----------0---|

   Free Time

    W      Q   Q  H
Gb|------|-----r--r---||
Db|------|-----e--e---||
Ab|------|-----s--s---||
Eb|(0)---|-12\-t--t---||

Enjoy!!!

| /  slide up       W = whole note
| \  slide down     H = half note          H. = dotted half note
| h  hammer-on      Q = quarter note       Q. = dotted quarter note
| p  pull-off       E = eighth note        E. = dotted eighth note
| ~  vibrato        S = sixteenth note     S. = dotted sixteenth note
| +  harmonic
| x  Mute note
=================================================================================================
            

comments powered by Disqus
↑ Back to top | Van Halen Bass for Ain't Talkin Bout Love. Lyrics for acoustic guitar and electric guitar. Tablatures and chords are parodies/interpretations of the original songs. You may use it for private study, scholarship, research or language learning purposes only