» » »

M79 Tabs (ver.1)

Artists:  A B C D E F G H I J K L M N O P Q R S T U V W X Y Z # 

M79 Tabs (ver.1)

Vampire Weekend
Rating:
0/5 (0 votes)

Hard to play? Try these video lessons and learn fast.
                






M79 tabbed out by Gurry :D

So anyways..
This is transferred from a Vampire Weekend Tab Book that i got from 
Guitar Center, so this Tab is 100% Correctomundo.

 

Guitar Tuning - (E A D G B E) - 

This is the first main riff on guitar that comes in a little later in the song.

 4/4
  Gtr I  
|-7-7-7-7--7-7-7--5-5-5---3-3-3-3--3-3-3--5-5-5--7-7-7-7--7-7-7--|
|-8-8-8-8--8-8-8--7-7-7---5-5-5-5--5-5-5--7-7-7--8-8-8-8--8-8-8--|
|-7-7-7-7--7-7-7--7-7-7---4-4-4-4--4-4-4--7-7-7--7-7-7-7--7-7-7--|
|----------------------------------------------------------------|
|----------------------------------------------------------------|
|----------------------------------------------------------------|


|-5-5-5--3-3-3-3--3-3-3--5-5-5---8--8--8--8---8--8--8--10-10-10--3-3-3-3--|
|-7-7-7--5-5-5-5--5-5-5--7-7-7--10-10-10-10--10-10-10--12-12-12--5-5-5-5--|
|-7-7-7--4-4-4-4--4-4-4--7-7-7---9--9--9--9---9--9--9--11-11-11--4-4-4-4--|
|-------------------------------------------------------------------------|
|-------------------------------------------------------------------------|
|-------------------------------------------------------------------------|


|-3-3-3--5-5-5--5-5-5-5--7--5-5-5-5--7--5--5-5-3-5-3-5----|
|-5-5-5--5-5-5--7-7-7-7--8--7-7-7-7--8--7--7-7-5-7-5-7----|
|-4-4-4--5-5-5--7-7-7-7--7--7-7-7-7--7--7--7-7-5-7-5-7----|
|---------------------------------------------------------|
|---------------------------------------------------------|
|---------------------------------------------------------|

This is The second riff that begins right before the 
"Whoaaaaaaa" part.

|-3-3-5-5--3-3-5-5--7----|
|-5-5-7-7--5-5-7-7--8----|
|-5-5-7-7--5-5-7-7--9----|
|------------------------|
|------------------------|
|------------------------|


A tiny riff right before the "No excuse to be so calice" 
part.
|------------------------|
|-8-8--8-8----8----------|
|------------------------|
|------------------------|
|------------------------|
|------------------------|

After the second riff is through, you then start the first riff again :]


This is the little outro riff right before the song ends.
|----------------------------------------------|
|-8-8-8-8--8-8-8-8-8-8-8-8--8-8-8-8--10-7-8----|
|----------------------------------------------|
|----------------------------------------------|
|----------------------------------------------|
|----------------------------------------------|


And that's pretty much the whole song!
If you have any questions, or comments go to

I have a Cover of M79 up there.
Just Private Message Me if you need anything..
(You could also comment some of my videos and subscribe while you're there ;D)

Have fun! 
-Gurry
            
Hard to play? Try these video lessons and learn fast. | Correct




comments powered by Disqus
↑ Back to top | Tablatures and chords are parodies/interpretations of the original songs. You may use it for private study, scholarship, research or language learning purposes only