» » »

Vampire Weekend, M79 Tabs (ver.2)

Artists:  A B C D E F G H I J K L M N O P Q R S T U V W X Y Z # 

M79 Tabs (ver.2)

Vampire Weekend Tabs
Rating:
0/5 (0 votes)
M79 lessons Tabs too difficult? Try these video lessons and learn fast
                (Intro)
M79 - Vampire Weekend

Tuning:EADGBe (Standard)

Here is the classical strings/harpsichord intro of M79...tabbed for the guitar!
Its difficult, but really fun to play once you get the hang of it :D


PART 1 (0:00- 0:16)

e|7p3---7----7p3---7-5p2---5-3p0---3----3p0---3-5p2---5--|
B|----3----------3---------------0----------0-------3----|
G|-----------------------5-------------------------------|
D|-------------------------------------------------------|  x2
A|-------------------------------------------------------|
E|-------------------------------------------------------|


e|8p5---8----8p5---8-10p7---10-7p3---7----7p3---7-5p2---5|
B|----5----------5--------7--------5----------5-------3--|
G|-------------------------------------------------------|
D|-------------------------------------------------------|
A|-------------------------------------------------------|
E|-------------------------------------------------------|

e|5p2--5--3--5p2---5--3--2--2-2---2---2--|
B|---3-----------3--------------5---5----|
G|---------------------------------------|
D|---------------------------------------|
A|---------------------------------------|
E|---------------------------------------|


PART 2 (0:17- 0:34)
During the following part tabbed out, Part one is played in the back as the rhythm line.

e|7-10-8-10-7--10--7--10------8---------------------------------|
B|------------------------10-----8-12-10-12-8--12--8--12--10--13|
G|--------------------------------------------------------------|  x2
D|--------------------------------------------------------------|
A|--------------------------------------------------------------|
E|--------------------------------------------------------------|

e|8-12-10-12-8--12-8--12--10--14--12-15-14-15-12--15--|
B|----------------------------------------------------|
G|----------------------------------------------------|
D|----------------------------------------------------|
A|----------------------------------------------------|
E|----------------------------------------------------|

e|15-14-12------------------------------------------|
B|---------15-13-12---------------------------------|
G|------------------14-12-14h16p14------------------|
D|---------------------------------17-16-14---------|
A|------------------------------------------17-15-14|
E|--------------------------------------------------|

e|--------------------------------------------------------------14--|
B|---------------------------------------------13----15-13-17-15----|
G|---------------------------12----14-12-16-14----16----------------|
D|---------12----14-12-16-14----16----------------------------------|
A|12-15-14----15----------------------------------------------------|
E|------------------------------------------------------------------|
            

comments powered by Disqus
↑ Back to top | Vampire Weekend Tabs for M79. Lyrics for acoustic guitar and electric guitar. Tablatures and chords are parodies/interpretations of the original songs. You may use it for private study, scholarship, research or language learning purposes only