» » »

Vampire Weekend, Cape Cod Kwassa Kwassa Bass tabs (ver.1)

Artists:  A B C D E F G H I J K L M N O P Q R S T U V W X Y Z # 

Cape Cod Kwassa Kwassa Bass tabs (ver.1)

Vampire Weekend Tabs
 Rating:
4/5 (10 votes)
Cape Cod Kwassa Kwassa lessons Tabs too difficult? Try these video lessons and learn fast
1
                
Tuning: Standard

The guitar starts it out (you’ll have to listen to how many times you play each one but 
all there is to it)
INTRO
G|--------------------------------------------------------------|
D|--------------------------------------------------------------|
A|-555----55----------------------------------------------------|
E|--------------------------------------------------------------|

VERSE/BRIDGE 			   After 1st chorus
G|-----------------------------| -----------------------------|
D|------474--------------------| ----474----------------------|
A|--5545---5-22-44-5-555-------| 5545---5-22-44-5/14\5--------|
E|-------------3--5------------| -----------3--5--------------|

CHORUS
G|--------------------------------------------------------------|
D|--------------------------------------------------------------|
A|-22-44-5-555--------------------------------------------------|
E|---3--5-------------------------------------------------------|

POST-CHORUS
G|---------------------66-66-6-------------------------------------------|
D|--------5----55-55-5---5--5-5------------------------------------------|
A|----5-545-545--5--5-5---------5----------------------------------------|
E|0-5--------------------------------------------------------------------|

| / slide up
| \ slide down
| h hammer-on
| p pull-off
| ~ vibrato
| + harmonic
| x Mute note
============================================================================
            
Submit corrections

comments powered by Disqus
↑ Back to top | Vampire Weekend Bass for Cape Cod Kwassa Kwassa. Lyrics for acoustic guitar and electric guitar. 1 Tablatures and chords are parodies/interpretations of the original songs. You may use it for private study, scholarship, research or language learning purposes only