» » »

Vampire Weekend, A-punk Bass tabs (ver.1)

Artists:  A B C D E F G H I J K L M N O P Q R S T U V W X Y Z # 

A-punk Bass tabs (ver.1)

Vampire Weekend Tabs
 Rating:
4.3/5 (6 votes)
A-punk lessons Tabs too difficult? Try these video lessons and learn fast
                A-Punk



This is tabbed so far up the neck because:
ONE: this is how the bassist plays it, and
TWO: it gives you the same bouncy sound as in the recording.


INTRO (Bass comes in at 0:02)
G|------------------|
D|------------------|
A|---------17171717-|
E|-17~-15~----------|

G|----------------------------------|
D|-----------------------16--17--16-|
A|-----16-------14---1717--17--17---|
E|-1717--17-1515--15----------------|

G|-------------------------------------------------------|
D|-------------------------------------------------------|
A|-------------------1717171717171717-----------55555555-|
E|-17171717-15151515------------------5555-3333----------|

VERSE
G|----------------------------------|
D|-----------------------16--17--16-|
A|-----16-------14---1717--17--17---|
E|-1717--17-1515--15----------------| x3

G|-------------------------------------------------------|
D|-------------------------------------------------------|
A|-------------------1717171717171717-----------55555555-|
E|-17171717-15151515------------------5555-3333----------|

G|----------------------------------|
D|-----------------------16--17--16-|
A|-----16-------14---1717--17--17---|
E|-1717--17-1515--15----------------| x3

G|-------------------------------------------------------|
D|-------------------------------------------------------|
A|-------------------1717171717171717-----------55555555-|
E|-17171717-15151515------------------5555-3333----------|

CHORUS
G|--------------------------------|
D|--------------------------------|
A|-(17-x22)------17----17----17---|
E|-----------1517--1517--1517--17-| x3

G|------------------------------------------------|
D|------------------------------------------------|
A|-1717171717171717171717171717-17~17~17-17-17-17-|
E|------------------------------------------------|

BRIDGE
G|----------------------------------|
D|-----------------------16--17--16-|
A|-----16-------14---1717--17--17---|
E|-1717--17-1515--15----------------|

G|----------------------|
D|----------------------|
A|-----16-------14---17-|
E|-1717--17-1515--15----|

VERSE
G|----------------------------------|
D|-----------------------16--17--16-|
A|-----16-------14---1717--17--17---|
E|-1717--17-1515--15----------------| x3

G|-------------------------------------------------------|
D|-------------------------------------------------------|
A|-------------------1717171717171717-----------55555555-|
E|-17171717-15151515------------------5555-3333----------|

G|----------------------------------|
D|-----------------------16--17--16-|
A|-----16-------14---1717--17--17---|
E|-1717--17-1515--15----------------| x3

CHORUS II
G|-------------------------------------------------------|
D|-------------------------------------------------------|
A|-------------------1717171717171717-----------55555555-|
E|-17171717-15151515------------------5555-3333----------|

G|--------------------------------|
D|--------------------------------|
A|-(17-x22)------17----17----17---|
E|-----------1517--1517--1517--17-| x5

G|------------------------------------------------|
D|------------------------------------------------|
A|-1717171717171717171717171717-17~17~17-17-17-17-|
E|------------------------------------------------|

BRIDGE/OUTRO
G|----------------------------------|
D|-----------------------16--17--16-|
A|-----16-------14---1717--17--17---|
E|-1717--17-1515--15----------------|

G|----------------------|
D|----------------------|
A|-----16-------14---17-|
E|-1717--17-1515--15----|
 
            
Submit corrections

comments powered by Disqus
↑ Back to top | Vampire Weekend Bass for A-punk. Lyrics for acoustic guitar and electric guitar. Tablatures and chords are parodies/interpretations of the original songs. You may use it for private study, scholarship, research or language learning purposes only