» » »

A-punk Bass tabs (ver.2)

Artists:  A B C D E F G H I J K L M N O P Q R S T U V W X Y Z # 

A-punk Bass tabs (ver.2)

Vampire Weekend
Rating:
5/5 (15 votes)

Hard to play? Try these video lessons and learn fast.
                INTRO (Bass comes in at 0:02)
G|------------------|
D|---------12121212-|
A|-12~-10~----------|
E|------------------|

G|-----------------------11--12--11--|
D|-----11-------9----1212--12--12--12|
A|-1212--12-1010--10-----------------|
E|-----------------------------------|

G|-------------------------------------------------------|
D|------------------1212121212121212---------------------|
A|-12121212-10101010---------------------------55555555--|
E|------------------------------------5555-3333----------|

VERSE
G|-----------------------11--12--11--|
D|-----11-------9----1212--12--12--12|
A|-1212--12-1010--10-----------------|
E|-----------------------------------| x3

G|-------------------------------------------------------|
D|------------------1212121212121212---------------------|
A|-12121212-10101010---------------------------55555555--|
E|------------------------------------5555-3333----------|

G|-----------------------11--12--11--|
D|-----11-------9----1212--12--12--12|
A|-1212--12-1010--10-----------------|
E|-----------------------------------| x3

G|-------------------------------------------------------|
D|------------------1212121212121212---------------------|
A|-12121212-10101010---------------------------55555555--|
E|------------------------------------5555-3333----------|

CHORUS
G|--------------------------------|
D|-(12-x22)------12----12----12---|
A|-----------1012--1012--1012--12-|
E|--------------------------------| x3

G|------------------------------------------------|
D|-1212121212121212121212121212-12~12~12-12-12-12-|
A|------------------------------------------------|
E|------------------------------------------------|

BRIDGE
G|-----------------------11--12--11--|
D|-----11-------9----1212--12--12--12|
A|-1212--12-1010--10-----------------|
E|-----------------------------------|

G|----------------------|
D|-----11-------9----12-|
A|-1212--12-1010--10----|
E|----------------------|

VERSE
G|-----------------------11--12--11--|
D|-----11-------9----1212--12--12--12|
A|-1212--12-1010--10-----------------|
E|-----------------------------------| x3

G|-------------------------------------------------------|
D|------------------1212121212121212---------------------|
A|-12121212-10101010---------------------------55555555--|
E|------------------------------------5555-3333----------|

G|-----------------------11--12--11--|
D|-----11-------9----1212--12--12--12|
A|-1212--12-1010--10-----------------|
E|-----------------------------------| x3

CHORUS II
G|-------------------------------------------------------|
D|------------------1212121212121212---------------------|
A|-12121212-10101010---------------------------55555555--|
E|------------------------------------5555-3333----------|

G|--------------------------------|
D|-(12-x22)------12----12----12---|
A|-----------1012--1012--1012--12-|
E|--------------------------------|  x5

G|------------------------------------------------|
D|-1212121212121212121212121212-12~12~12-12-12-12-|
A|------------------------------------------------|
E|------------------------------------------------|

BRIDGE/OUTRO
G|-----------------------11--12--11--|
D|-----11-------9----1212--12--12--12|
A|-1212--12-1010--10-----------------|
E|-----------------------------------|

G|----------------------|
D|-----11-------9----12-|
A|-1212--12-1010--10----|
E|----------------------|

------------
Please Rate!
            
Hard to play? Try these video lessons and learn fast. | Correct




comments powered by Disqus
↑ Back to top | Tablatures and chords are parodies/interpretations of the original songs. You may use it for private study, scholarship, research or language learning purposes only