» » »

Vains Of Jenna, Enemy In Me Tabs (ver.3)

Artists:  A B C D E F G H I J K L M N O P Q R S T U V W X Y Z # 

Enemy In Me Tabs (ver.3)

Vains Of Jenna Tabs
 Rating:
4/5 (4 votes)
Enemy In Me lessons Tabs too difficult? Try these video lessons and learn fast
                ----------------------------------------------------------------------------
                             Enemy in Me - Vains of Jenna
----------------------------------------------------------------------------

Tuning: Standard


e|--9--12--11-------11---12-----------------------------------------------|
B|----9---9---12-12----9----9---------------------------------------------|
G|------------------------------------------------------------------------|
D|------------------------------------------------------------------------|
A|------------------------------------------------------------------------|
E|------------------------------------------------------------------------|


e|-----------------------------12----12----12----12------12----12---------|
B|-------------------------9h10--9h10--9h10--9h10--9-9h10--9h10--9h10-9\7-|
G|--6-9-8-8-9--6-9-8-8-9--------------------------------------------------|
D|-------9----------9-----------------------------------------------------|
A|------------------------------------------------------------------------|
E|------------------------------------------------------------------------|
 |
 |Guitar II
e|------------------------------------------------------------------------|
B|------------------------------------------------------------------------|
G|---6----4--------------------6----4-------------------------------------|
D|---6----4----4----7~~~~/9----6----4----4----7~~~~/9---------------------|
A|---4----2----4----7~~~~/9----4----2----4----7~~~~/9---------------------|
E|-------------2----5~~~~/7--------------2----5~~~~/7---------------------|


e|------------------------------------------------------------------------|
B|------------------------------------------------------------------------|
G|----6--------------2---------6----6--------------2---------6------------|
D|----6----2----4----2----2----6----6----2----4----2----2----6------------|
A|----4----2----4----0----2----4----4----2----4----0----2----4------------|
E|---------0----2---------0--------------0----2---------0-----------------|


e|------------------------------------------------------------------------|
B|------------------------------------------------------------------------|
G|----8-9p8-8-11p8-9p8-8---------6p4-----------6p4------------------------|
D|-7/9-9---9-9----9---9----4-7-4-----7---4-7-4-----7----------------------|
A|------------------------------------------------------------------------|
E|------------------------------------------------------------------------|


e|------------------------------------------------------------------------|
B|------------------------------------------------------------------------|
G|----8-9p8-8-11p8-9p8-8--------4-----------------------------------------|
D|-7/9-9---9-9----9---9---------4-----------------------------------------|
A|-------------------------7-7--6-----------------------------------------|
E|-------------------------7-7--------------------------------------------|



| /  slide up
| \  slide down
| h  hammer-on
| p  pull-off
| ~  vibrato
============================================================================

A few parts are missing (solo) but I'll get it worked out and updated as soon as I can. 
            
Submit corrections

comments powered by Disqus
↑ Back to top | Vains Of Jenna Tabs for Enemy In Me. Lyrics for acoustic guitar and electric guitar. Tablatures and chords are parodies/interpretations of the original songs. You may use it for private study, scholarship, research or language learning purposes only