>
 >
Enemy In Me

Enemy In Me Guitar Tabs

Vains Of Jenna - Enemy In Me chords, tabs, tablatures, lyrics

Guitar lessons | Add/correct | Request | Top 50 tabs Artists:  A B C D E F G H I J K L M N O P Q R S T U V W X Y Z 0-9

Enemy In Me Guitar Tabs – Vains Of Jenna

CD, Sheet music, Poster

Do you like Enemy In Me? Share with your friends now
TabsTabs v2Tabs v3
-------------------------------------------------------------------------------
-------------------------------------------------------------------------------

6/9/09

They may play in standard tuning on all of their other songs, but
in the music video (the OFFICIAL ONE) you can tell that they are playing
this song a half step down. Just look at Nicki's hand positioning.
If you want to play it in standard just move all the notes
down one fret.

VOJ ROCKS!!!

Tuning: Eb G# C# F# Bb eb

Intro - Nicki Kin

eb|-10----13----12-----------12--13----10----13----12------------12--13-------|
Bb|---10----10----10--12--10---10--10-----10----10----10--12--10---10--10-----|
F#|---------------------------------------------------------------------------|
C#|---------------------------------------------------------------------------|
G#|---------------------------------------------------------------------------|
Eb|---------------------------------------------------------------------------|

eb|-10----13----12-----------12--13----10----13----12--12b13r12~~-------------|
Bb|---10----10----10--12--10---10---------10----10----------------------------|
F#|---------------------------------------------------------------------------|
C#|---------------------------------------------------------------------------|
G#|---------------------------------------------------------------------------|
Eb|---------------------------------------------------------------------------|

Lizzy DeVine

eb|---------------------------------------------------------------------------|
Bb|---------------------------------------------------------------------------|
F#|---------------------------------------------------------------------------|
C#|-12~~~~~~------------------------------------------------------------------|
G#|---------------------------------------------------------------------------|
Eb|---------------------------------------------------------------------------|

Into Part II - Nicki

eb|---------------------------------------------------------------------------|
Bb|---------------------------------------------------------------------------|
F#|---7---10---9------9-10---7---10---9------9-10-----------------------------|
C#|---------------10---------------------10-----------------------------------|
G#|---------------------------------------------------------------------------|
Eb|---------------------------------------------------------------------------|

Lizzy

eb|---------------------------------------------------------------------------|
Bb|---------------------------------------------------------------------------|
F#|--7-777777-777777-5-555555-555555------------------------------------------|
C#|--7-777777-777777-5-555555-555555------------------------------------------|
G#|--5-555555-555555-3-333333-333333------------------------------------------|
Eb|---------------------------------------------------------------------------|

eb|-------13------13------13------13-----------13------13---------------------|
Bb|-10h11---10h11---10h11---10h11---10---10h11---10h11---10h11-10\8-88-8-88---|
F#|---------------------------------------------------------------------------|
C#|---------------------------------------------------------------------------|
G#|---------------------------------------------------------------------------|
Eb|---------------------------------------------------------------------------|

eb|---------------------------------------------------------------------------|
Bb|---------------------------------------------------------------------------|
F#|-------------------3-3333-55555--------------------------------------------|
C#|--5-555555-555555--3-3333-55555--------------------------------------------|
G#|--5-555555-555555--1-1111-33333--------------------------------------------|
Eb|--3-333333-333333----------------------------------------------------------|

eb|---------------------------------------------------------------------------|
Bb|---------------------------------------------------------------------------|
F#|---7---10---9------9-10---7---10---9------9-10-----------------------------|
C#|---------------10---------------------10-----------------------------------|
G#|---------------------------------------------------------------------------|
Eb|---------------------------------------------------------------------------|

eb|---------------------------------------------------------------------------|
Bb|---------------------------------------------------------------------------|
F#|--7-777777-777777-5-555555-555555------------------------------------------|
C#|--7-777777-777777-5-555555-555555------------------------------------------|
G#|--5-555555-555555-3-333333-333333------------------------------------------|
Eb|---------------------------------------------------------------------------|

eb|-------13------13------13------13-----------13------13---------------------------|
Bb|-10h11---10h11---10h11---10h11---10---10h11---10h11---10h11-11\13-1313-13-1313---|
F#|---------------------------------------------------------------------------------|
C#|---------------------------------------------------------------------------------|
G#|---------------------------------------------------------------------------------|
Eb|---------------------------------------------------------------------------------|

For the 2nd Chorus before Bridge 2, Nicki bends 11 on the B string up a full step twice 
of sliding up to 13.

eb|---------------------------------------------------------------------------|
Bb|---------------------------------------------------------------------------|
F#|-------------------3-3333-55555--------------------------------------------|
C#|--5-555555-555555--3-3333-55555--------------------------------------------|
G#|--5-555555-555555--1-1111-33333--------------------------------------------|
Eb|--3-333333-333333----------------------------------------------------------|

Verse 1

eb|---------------------------------------------------------------------------|
Bb|---------------------------------------------------------------------------|
F#|--7-x--------xxxxxxx--3-x-----7--xxxxxxx-----------------------------------|
C#|--7-x-3-x-5--xxxxxxx--3-x-3-x-7--xxxxxxx-----------------------------------|
G#|--5-x-3-x-5--xxxxxxx--1-x-3-x-5--xxxxxxx-----------------------------------|
Eb|------1-x-3---------------1-x----------------------------------------------|

eb|---------------------------------------------------------------------------|
Bb|---------------------------------------------------------------------------|
F#|---------------------------------------------------------------------------|
C#|---------------------------------------------------------------------------|
G#|---------------------------------------------------------------------------|
Eb|---------------------------------------------------------------------------|

eb|---------------------------------------------------------------------------|
Bb|---------------------------------------------------------------------------|
F#|--7-x--------xxxxxxx--3-x-----7--xxxxxxx-----------------------------------|
C#|--7-x-3-x-5--xxxxxxx--3-x-3-x-7--xxxxxxx-----------------------------------|
G#|--5-x-3-x-5--xxxxxxx--1-x-3-x-5--xxxxxxx-----------------------------------|
Eb|------1-x-3---------------1-x----------------------------------------------|

eb|---------------------------------------------------------------------------|
Bb|---------------------------------------------------------------------------|
F#|---------------------------------------------------------------------------|
C#|---------------------------------------------------------------------------|
G#|---------------------------------------------------------------------------|
Eb|---------------------------------------------------------------------------|

eb|---------------------------------------------------------------------------|
Bb|---------------------------------------------------------------------------|
F#|--7-x-----------------3-x-----7--7777777-----------------------------------|
C#|--7-x-3-x-5--5555555--3-x-3-x-7--7777777-----------------------------------|
G#|--5-x-3-x-5--5555555--1-x-3-x-5--5555555-----------------------------------|
Eb|------1-x-3--3333333------1-x----------------------------------------------|

eb|---------------------------------------------------------------------------|
Bb|---------------------------------------------------------------------------|
F#|--777777777777777777777777777777777777777----------------------------------|
C#|--xxxxxxxxxxxxxxxxxxxxxxxxxxxxxxxxxxxxxxx----------------------------------|
G#|--555555555555555555555555555555555555555----------------------------------|
Eb|---------------------------------------------------------------------------|

eb|---------------------------------------------------------------------------|
Bb|---------------------------------------------------------------------------|
F#|--7-x-----------------3-x-----7--7777777-----------------------------------|
C#|--7-x-3-x-5--5555555--3-x-3-x-7--7777777-----------------------------------|
G#|--5-x-3-x-5--5555555--1-x-3-x-5--5555555-----------------------------------|
Eb|------1-x-3--3333333------1-x----------------------------------------------|

eb|---------------------------------------------------------------------------|
Bb|---------------------------------------------------------------------------|
F#|--141414141414141414141919191919191919191919-------------------------------|
C#|--xxxxxxxxxxxxxxxxxxxxxxxxxxxxxxxxxxxxxxxxxx-------------------------------|
G#|--121212121212121212121717171717171717171717-------------------------------|
Eb|---------------------------------------------------------------------------|

Bridge

eb|---------------------------------------------------------------------------|
Bb|--5--5-6p5--5--5--5-6p5--5--------3------------------3---------------------|
F#|-5--5------5--5--5-----5-----3--5---5--3--------3--5---5--3----------------|
C#|---------------------------5-------------5----5-------------5--------------|
G#|---------------------------------------------------------------------------|
Eb|---------------------------------------------------------------------------|

eb|---------------------------------------------------------------------------|
Bb|---------------------------------------------------------------------------|
F#|-5-------------------------------------------------------------------------|
C#|-5-------------------------5-----------------------------------------------|
G#|-3-------------------------5-----------------------------------------------|
Eb|---------------------------3-----------------------------------------------|

eb|---------------------------------------------------------------------------|
Bb|--5--5-6p5--5--5--5-6p5----------------------------------------------------|
F#|-5--5------5--5--5-----5---------------------------------------------------|
C#|-----------------------------10-x-10-x-10----------------------------------|
G#|------------------------------8-x--8-x--7----------------------------------|
Eb|---------------------------------------------------------------------------|

eb|---------------------------------------------------------------------------|
Bb|---------------------------------------------------------------------------|
F#|-5-------------------------------------------------------------------------|
C#|-5---------------------------10-x-10-x-10----------------------------------|
G#|-3----------------------------8-x--8-x--7----------------------------------|
Eb|---------------------------------------------------------------------------|

Chorus - repeat Intro Part II

Verse 2 - repeat Verse 1

Repeat Bridge 1

Repeat Chorus

Bridge 2

eb|---------------------------------------------------------------------------|
Bb|--13h15~----1515-15\13~----1313-13\10~----1010-10/8~-----------------------|
F#|---------------------------------------------------------------------------|
C#|---------------------------------------------------------------------------|
G#|---------------------------------------------------------------------------|
Eb|---------------------------------------------------------------------------|

eb|---------------------------------------------------------------------------|
Bb|---------------------------------------------------------------------------|
F#|--7-------------------9------------10-------------12-----------------------|
C#|--7-------------------9------------10-------------12-----------------------|
G#|--5-------------------7-------------8-------------10-----------------------|
Eb|---------------------------------------------------------------------------|

eb|----10---------------------------------------------------------------------|
Bb|--10--10--13b15----13b15r13p11-13------------------------------------------|
F#|-------------------------------------12b14r12p10---10----------------------|
C#|-------------------------------------------------12--12~-------------------|
G#|---------------------------------------------------------------------------|
Eb|---------------------------------------------------------------------------|

eb|---------------------------------------------------------------------------|
Bb|---------------------------------------------------------------------------|
F#|---------------3-----------------5--------------------7--------------------|
C#|---------------3-----------------5--------------------7--------------------|
G#|---------------1-----------------3--------------------5--------------------|
Eb|---------------------------------------------------------------------------|

eb|--------------------12----12-----------------------------------------------|
Bb|-------------x-x----12----12-----------------------------------------------|
F#|-------------x-x-----------------------------------------------------------|
C#|--12~~~------x-x-----------------------------------------------------------|
G#|---------------------------------------------------------------------------|
Eb|---------------------------------------------------------------------------|

eb|---------------------------------------------------------------------------|
Bb|---------------------------------------------------------------------------|
F#|--7------------------------------------------------------------------------|
C#|--7------------------------------------------------------------------------|
G#|--5------------------------------------------------------------------------|
Eb|---------------------------------------------------------------------------|

Solo - Lizzy plays the same thing Nicki plays in the verse and then he plays the chords 
Bridge 1

eb|--------10----------------------------------10-------------------------------------------------|
Bb|--13b15----13-10--------------------------10--10-----------------------------------------------|
F#|-----------------12b14r12p10-12-10--12b14--------12b14-10-12-10--12b14-12b14-12b14r12p10-------|
C#|-----------------------------------------------------------------------------------------12----|
G#|-----------------------------------------------------------------------------------------------|
Eb|-----------------------------------------------------------------------------------------------|

I'm not so sure about this next part. I'm pretty sure it's somewhere along the lines of 
though. Go crazy.

eb|----------------------------------------10--12--12h13p12p10-12-10-13-10-15b16-15b16r15p13-----|
Bb|--------------------10h12p10---10-12/13---13--13-----------------------------------------15---|
F#|--9h10p9----9-10-12----------12---------------------------------------------------------------|
C#|---------12-----------------------------------------------------------------------------------|
G#|----------------------------------------------------------------------------------------------|
Eb|----------------------------------------------------------------------------------------------|

eb|------------------------------------17b18-17b18-17~--------------------------------|
Bb|----13---15b17r15--15b17r15---13---------------------------------------------------|
F#|--14--14--------------------14--14-------------------------------------------------|
C#|-----------------------------------------------------------------------------------|
G#|-----------------------------------------------------------------------------------|
Eb|-----------------------------------------------------------------------------------|

eb|-17\15-1515-15\13-1313-13\12-1212-12\10-10--20b22r20p17-20-17-20b22~~~-----|
Bb|---------------------------------------------------------------------------|
F#|---------------------------------------------------------------------------|
C#|---------------------------------------------------------------------------|
G#|---------------------------------------------------------------------------|
Eb|---------------------------------------------------------------------------|

eb|-12h13----13p12--15p13--13p12----------------------------------------------|
Bb|------13-----------------------13--13-13b15--11----------------------------|
F#|--------12-----12-----12-----12--12--------12--12--------------------------|
C#|---------------------------------------------------------------------------|
G#|---------------------------------------------------------------------------|
Eb|---------------------------------------------------------------------------|

eb|-12h13----13p12--15p13--13p12-20-------------------------------------------|
Bb|------13-------------------------------------------------------------------|
F#|--------12-----12-----12---------------------------------------------------|
C#|---------------------------------------------------------------------------|
G#|---------------------------------------------------------------------------|
Eb|---------------------------------------------------------------------------|

Fill - Nicki

eb|---------------------------------------------------------------------------|
Bb|---------------------------------------------------------------------------|
F#|---------------------------------------------------------------------------|
C#|--12--10-----------------12--10--------------------------------------------|
G#|----------12--11-10--------------12--11-10~--------------------------------|
Eb|--------------------13-----------------------------------------------------|

Lizzy

eb|---------------------------------------------------------------------------|
Bb|---------------------------------------------------------------------------|
F#|---------------------------------------------------------------------------|
C#|---------------------------------------------------------------------------|
G#|--5--3-----------5--3------------------------------------------------------|
Eb|-------5--4-3-1-------5--4-3~----------------------------------------------|

Repeat Chorus then play this twice

Chorus II

Nicki

eb|---------------------------------------------------------------------------|
Bb|---------------------------------------------------------------------------|
F#|----7--7-9p7--10p7--9p7--7--7---7--7-9p7--10p7--9p7--7--7------------------|
C#|--10-10-----10----10---10-10--10-10-----10----10---10-10-------------------|
G#|---------------------------------------------------------------------------|
Eb|---------------------------------------------------------------------------|

Lizzy

eb|---------------------------------------------------------------------------|
Bb|---------------------------------------------------------------------------|
F#|--7-777777-777777-5-555555-555555------------------------------------------|
C#|--7-777777-777777-5-555555-555555------------------------------------------|
G#|--5-555555-555555-3-333333-333333------------------------------------------|
Eb|---------------------------------------------------------------------------|

eb|---------------------------------------------------------------------------|
Bb|-----------------------------------------11-----11--------13-----13--------|
F#|----7--7-9p7--10p7--9p7--7--7---7--7-----13b15--13b15-----15b17--15b17-----|
C#|--10-10-----10----10---10-10--10-10----------------------------------------|
G#|---------------------------------------------------------------------------|
Eb|---------------------------------------------------------------------------|

eb|---------------------------------------------------------------------------|
Bb|---------------------------------------------------------------------------|
F#|-------------------3-xx-3-xx-5-xx-5----------------------------------------|
C#|--5-555555-555555--3-xx-3-xx-5-xx-5----------------------------------------|
G#|--5-555555-555555--1-xx-1-xx-3-xx-3----------------------------------------|
Eb|--3-333333-333333----------------------------------------------------------|

Finally Nicki plays this while Lizzy plays Nicki's part from the verse

eb|---------------------------------------------------------------------------|
Bb|---------------------------------------------------------------------------|
F#|--12b14r12p10----10--------------------------------------------------------|
C#|--------------12----12-----------------------------------------------------|
G#|---------------------------------------------------------------------------|
Eb|---------------------------------------------------------------------------|

Any questions, comments, or corrections would be much appreciated.
Please rate!


| /  slide up
| \  slide down
| h  hammer-on
| p  pull-off
| ~  vibrato
| +  harmonic
| x  Mute note
| b  bend
===============================================================================





Comments


Popular Vains Of Jenna tabs & chords
Hard To Be Vain Chords
A.S.A.D Tabs
Ceased Emotions Tabs
Dont Give A Damn Intro Tabs
Enemy In Me 3 Tabs
Hard To Be Vain Tabs
Noones Gonna Do It For You Tabs
Noones Gonna Do It For You Intro Tabs
One Last Pleasure Tabs
Set It Off Intro Tabs


Song lyrics



↑ Back to top | Tablatures and chords are parodies/interpretations of the original songs. You may use it for private study, scholarship, research or language learning purposes only
© 2014 AZChords.com Contact us | Privacy policy | DMCA | Add/correct tabs | Request tabs | Top 50 tabs