>
 >
Enemy In Me 3

Enemy In Me 3 Guitar Tabs

Vains Of Jenna - Enemy In Me 3 chords, tabs, tablatures, lyrics

Guitar lessons | Add/correct | Request | Top 50 tabs Artists:  A B C D E F G H I J K L M N O P Q R S T U V W X Y Z 0-9

Enemy In Me 3 Guitar Tabs – Vains Of Jenna

CD, Sheet music, Poster

Do you like Enemy In Me 3? Share with your friends now
TabsTabs v2Tabs v3


E|----------9-------------po-------------------------------9------------------------|
H|---fb-9-----9--12---12-9---------9-----------fb-9--------12---9--------9----------|
G|--11-----------------------------11-----11------11---------------------11-----11--|
D|----------------------------------------------------------------------------------|
A|----------------------------------------------------------------------------------|
E|----------------------------------------------------------------------------------|

E|------------------------------------------|
H|------fb------fb-------fb--------9---vbr--|
G|----11-------11------11-------------11----|
D|------------------------------------------|
A|------------------------------------------|
E|------------------------------------------|
this part i made by myself cause i couldn't hear what nicki plays but it's close
E|-------------------------------------------------------------------------|
H|---------------------------------------------------------------------11--|
G|-------------------------------11-------11-13-14-11-13-14---------13-----|
D|---11-13-14-11-13-14--------14-------------------------------------------|
A|-------------------------------------------------------------------------|
E|-------------------------------------------------------------------------|
it's played with legato              fb      fb      fb
E|------------------------------14----14----14----vbr---------------------------|
H|--11-12-14-11-12-14-------------------------14------------------------12--14--|
G|--------------------------------------------------------------------------13--|
D|------------------------------------------------------------------------------|
A|------------------------------------------------------------------------------|
E|------------------------------------------------------------------------------|
                                                                    fb       fb      vbr
E|------fb------------fb-------------------------------16-----16----16--|
H|-----14----------14-------------------12--14--------------------------|
G|-------------13------------------13-----------------------------------|
D|----------------------------------------------------------------------|
A|----------------------------------------------------------------------|
E|----------------------------------------------------------------------|


         sl                      sl                    sl                      sl
E|---16-14-14-14----14-12-12-12---12-11-11--11---11-9-9-9--|
H|---------------------------------------------------------|
G|---------------------------------------------------------|
D|---------------------------------------------------------|
A|---------------------------------------------------------|
E|---------------------------------------------------------|
      fb            fb           fb
E|--19---16---19---16---19--|
H|--------------------------|
G|--------------------------|
D|--------------------------|
A|--------------------------|
E|--------------------------|

-fb = full bend
-vbr = vibrato
- sl = slide

solo is in standard tuning ( in E ) . you have to figure the timing by yourself





Comments


Popular Vains Of Jenna tabs & chords
Hard To Be Vain Chords
Baby's Got A Secret Tabs
Ceased Emotions Tabs
Goin Down Intro Tabs
Hard To Be Vain Tabs
Lit Up / Let Down Tabs
Mind Pollution Tabs
Noones Gonna Do It For You Tabs
One Last Pleasure Tabs
Set It Off Intro Tabs


Song lyrics



↑ Back to top | Tablatures and chords are parodies/interpretations of the original songs. You may use it for private study, scholarship, research or language learning purposes only
© 2014 AZChords.com Contact us | Privacy policy | DMCA | Add/correct tabs | Request tabs | Top 50 tabs