» » »

Usher, Bad Girl Tabs (ver.1)

Artists:  A B C D E F G H I J K L M N O P Q R S T U V W X Y Z # 

Bad Girl Tabs (ver.1)

Usher Tabs
Rating:
4/5 (1 vote)
Bad Girl lessons Tabs too difficult? Try these video lessons and learn fast
                -------------------------------------------------------------------------------
-------------------------------------------------------------------------------

Tuning:Standard(EADGBe)


CHORDS USED:

e|--x--7--5--5--------------------|
B|--8--7--6--5--------------------|
G|--9--7--5--5--------------------|
D|--9--7--7--5--------------------|
A|--7--7--5--5--------------------|
E|--x--x--x--x--------------------|

(Intro)
e|--x--7-x-x-x-x-x-|
B|--8p-7 x-x-x-x-x-|
G|--9p-7-x-x-x-x-x-|(x11)
D|--9p-7-x-x-x-x-x-|
A|--7--7-x-x-x-x-x-|
E|--x--x-x-x-x-x-x-|

After the long Intro play this.
(Main)                                        (#2)
e|--x--7-x-x-x-x-|                       e|-5--5-x-x-x-x-x|
B|--8p-7 x-x-x-x-|                       B|-6p-5-x-x-x-x-x|
G|--9p-7-x-x-x-x-|(x7)                   G|-5--5-x-x-x-x-x|(x1) back to Main
D|--9p-7-x-x-x-x-|                       D|-7p-x-x-x-x-x-x|
A|--7--7-x-x-x-x-|                       A|-5--x-x-x-x-x-x|
E|--x--x-x-x-x-x-| Than Once and back..  E|-x--x-x-x-x-x-x|


When he sings i need it bad girl.. right after switch to #2 an back to main riff throguh the whole song.

| /  slide up
| \  slide down
| h  hammer-on
| p  pull-off
| ~  vibrato
| +  harmonic
| x  Mute note
============================================================================
            
Submit corrections

comments powered by Disqus
↑ Back to top | Usher Tabs for Bad Girl. Lyrics for acoustic guitar and electric guitar. Tablatures and chords are parodies/interpretations of the original songs. You may use it for private study, scholarship, research or language learning purposes only