>
 >
No Time For Me To Be A Teenager 1

No Time For Me To Be A Teenager 1 Guitar Tabs

Useless Id - No Time For Me To Be A Teenager 1 chords, tabs, tablatures, lyrics

Guitar lessons | Add/correct | Request | Top 50 tabs Artists:  A B C D E F G H I J K L M N O P Q R S T U V W X Y Z 0-9

No Time For Me To Be A Teenager 1 Guitar Tabs – Useless Id

CD, Sheet music, Poster

Do you like No Time For Me To Be A Teenager 1? Share with your friends now
Bass TabsChordsTabsTabs v2Ukulele
---------------------------------------------------------------
         Useless Id - No Time For Me To Be A Teenager
---------------------------------------------------------------


JUST LISTEN THE SONG AND FOLLOW THE TAB!!!

Intro
guitar 1 (the fisrt one let it ring)
e|------------------------------------------|
B|------------------------------------------|
G|---7-----7-------------4------------------| X 2
D|---7-----7-------5-----4-----7------------|
A|---5-----5-------5-----2-----7------------|
E|-----------------3-----------5------------|
    
guitar 2
e|------0-----1------2-----------|        e|------0-----------0--|
B|----2---2-----2------2----2----|        B|----2---2---2---2----|
G|--3-------3-----3------3----3--| X 3    G|--3-------3----3-----|
D|-------------------------------|        D|---------------------|
A|-------------------------------|        A|---------------------|
E|-------------------------------|        E|---------------------|


VERSE 1
e|------|                  e|------|
B|------|                  B|------|
G|--7---|(let it ring)     G|------| (palm muted)
D|--7---|                  D|--7---|
A|--5---|                  A|--7---| 
E|------|                  E|--5---| 
    
e|--------------------------------------|            e|----| 
B|--------------------------------------|            B|----|
G|---7----------------------------------|            G|----|
D|---7-----9-----5----7----9----5----7--|            D|-7--|
A|---5-----9-----5----7----9----5----7--|            A|-7--|
E|---------7-----3----5----7----3----5--|            E|-5--|
    {-----------palm muted------------}

 
CHORUS
guitar 1
e|-------------------------------------|
B|-------------------------------------|
G|--7-------4--------------------------|
D|--7---4---4---5---7---9---7-9---5----| X 2
A|--5---4---2---5---7---9---7-9---5----|
E|------2-------3---5---7---5-7---3----|

guitar 2
e|10--10--9---9---12--12--10---10---9--9---10--10---|
B|--10--10--10--10--10--10--10---10--10--10--10--10-|
G|--------------------------------------------------|
D|--------------------------------------------------|
A|--------------------------------------------------|
E|--------------------------------------------------|

e|-9------12---------|
B|-10-----10---------|
G|-------------------|
D|----------------5--|
A|----------------5--|
E|----------------3--|

e|10---10---9---9---12---12---10---10---9---9---------------|
B|--10---10--10--10---10---10---10---10--10--10///1---------|
G|----------------------------------------------------------|
D|----------------------------------------------------------|
A|----------------------------------------------------------|
E|----------------------------------------------------------|

e|-------------|
B|-------------|
G|-------------|
D|--7-9---5----|
A|--7-9---5----|
E|--5-7---3----|



VERSE 2 
A|-------5-| 
E|-3--5----|   

e|-------------------------|
B|-------------------------|
G|---7/9/6---7-----4-------|
D|----------------------7--|
A|---5/7/4---5-----2-------|
E|----------------------5--|

e|--------|
B|--------|
G|--7-7-7-|
D|--------|
A|--4-4-4-|
E|--------|

guitar 1
(is the same palm muted part in the verse 1)

guitar 2
e|------------------------------|   \
B|------------------------------|    |
G|--x14--x12--x11--x12--x11-11--|    |
D|--x12--x12--x12--x12--x12-12--|    |
A|------------------------------|    |
E|------------------------------|    |
                                     | X 2
e|------------------------------|    |
B|------------------------------|    |
G|--x14--x12--x11--x9---x7-7----|    |
D|--x12--x12--x12--x11--x9-9----|    |
A|------------------------------|    |
E|------------------------------|   /


CHORUS
IS THE SAME FOR THE FIRST GUITAR, BUT THE SECOND GUITAR HAS SOME CHANGES

guitar 2
e|10---10---9---9---12---12---10---10---9---9---10---10---|
B|---10---10--10--10---10---10---10---10--10--10--10---10-|
G|--------------------------------------------------------|
D|--------------------------------------------------------|
A|--------------------------------------------------------|
E|--------------------------------------------------------|

e|-9-----9--------7(let it ring)--|
B|---10----10---------------------|
G|--------------------------------|
D|--------------------------------|
A|--------------------------------|
E|--------------------------------|

e|10--10---9---9---12---12---10---10----------------------|
B|--10--10--10--10---10---10---10---10---10(let it ring)--|
G|--------------------------------------------------------|
D|--------------------------------------------------------|
A|--------------------------------------------------------|
E|--------------------------------------------------------|

OCTAVES
guitar 1
e|-------------------|            e|--------------------------|
B|-------------------|            B|--------------------------|
G|--7---9---12---11--|  X 3       G|--7---9---7---6---4---6---|
D|-------------------|            D|--------------------------|
A|--5---7---10---9---|            A|--5---7---5---4---2---4---|
E|-------------------|            E|--------------------------|
\                                                         /
 ---------------------------------------------------------
                          X 2
guitar 2
e|-----------------------------------------|
B|-----------------------------------------|
G|---7-------------------------------------|
D|---7------------5-----9-----7------------|
A|---5------------5-----9-----7------------|
E|----------------3-----7-----5------------|

e|--------------------|            e|--------------------------|
B|--------------------|            B|--------------------------|
G|--7---12---16---10--|  X 3       G|--7---9---7---6---4---6---|
D|--------------------|            D|--------------------------|
A|--5---10---14---12--|            A|--5---7---5---4---2---4---|
E|--------------------|            E|--------------------------|


END
guitar 1      guitar 2
e|-----|      e|-----|
B|-----|      B|-----|
G|--7--|      G|--7--|
D|-----|      D|--7--|
A|--5--|      A|--5--|
E|-----|      E|-----|





Comments


Popular Useless Id tabs & chords
No Time For Me To Be A Teenager Bass Tabs
Perfect Life Bass Tabs
Pink Stars And Magazines Bass Tabs
Presents Bass Tabs
Another Bad Taste Tabs
Note Tabs
Oh, My Guard 1 Tabs
Pink Stars And Magazines Tabs
Before I Go Ukulele
Diary Ukulele


Song lyrics



↑ Back to top | Tablatures and chords are parodies/interpretations of the original songs. You may use it for private study, scholarship, research or language learning purposes only
© 2014 AZChords.com Contact us | Privacy policy | DMCA | Add/correct tabs | Request tabs | Top 50 tabs