>
 >
No Time For Me To Be A Teenager

No Time For Me To Be A Teenager Guitar Tabs

Useless Id - No Time For Me To Be A Teenager chords, tabs, tablatures, lyrics

Guitar lessons | Add/correct | Request | Top 50 tabs Artists:  A B C D E F G H I J K L M N O P Q R S T U V W X Y Z 0-9

No Time For Me To Be A Teenager Guitar Tabs – Useless Id

CD, Sheet music, Poster

Do you like No Time For Me To Be A Teenager? Share with your friends now
Bass TabsChordsTabsTabs v2Ukulele


הבסיסט של "הברווזונים של אנדי" בנאדם אדיר

openning:
-------------------|------------------|------------------|--------------------
-------5---8---7---|-------5---8---7--|-------5---8---7--|----5---------5-----
-7-7-7---7---7---7-|-7-7-7---7---7---7|-7-7-7---7---7---7|7--7--7-----6---6---
-------------------|------------------|------------------|--9-----9-7-------7-
-------------------|------------------|------------------|--------------------
-------------------|------------------|------------------|--------------------
 D                   D                  G                 B         A         


VERSE:

D B G   A B G  D B G  A B G  A

Chorus:               second time play until this part
--------|-------|-------|--------||-------|--------|--------------------------
---3---3|--3---3|--3---3|--------||--2---2|---3---3|-3---2-3------------------
-2---2--|2---2--|4---4--|---2---2||2---2--|-4---4--|-2---2-4------------------
--------|-------|-------|-5---5--||-------|--------|--------------------------
--------|-------|-------|--------||-------|--------|--------------------------
--------|-------|-------|--------||-------|--------|--------------------------
 D       C#+5        B        G        A        B   Bb+5 B G                   

Verse 2:                           
------|------------------------------|-------------------||-------------------
------|-------------------------5-5-5|-10----------------||-------------------
------|-------------------------6-6-6|-x---12--11--9--7-7||x4-----------------
------|-------------------------7-7-7|-7---x---x---x--x-x||-------------------
-----5|-----------5h7-4--5-2-0-------|-----10--9---7--5-5||-------------------
-3h5--|------------------------------|-------------------||-------------------
       D   B   G      A  B G    A      D       B           G  ...             

-----------------------------||-----|------------------------------||---------
-----------------------------||-----|-7--7-8-8-8-12-12-12-10-10-10-||---------
-7--7-9-9-9-12-12-12-11-11-11||x4---|-7--7-9-9-9-12-12-12-11-11-11-||x4-------
-x--x-x-x-x-x--x--x--x--x--x-||-----|-x--x-x-x-x-x--x--x--x--x--x--||---------
-5--5-7-7-7-10-10-10-9--9--9-||-----|-5--5-7-7-7-10-10-10-9--9--9--||---------
-----------------------------||-----|------------------------------||---------





Comments


Popular Useless Id tabs & chords
Birthdaysong Bass Tabs
Jukebox Bass Tabs
Perfect Life Bass Tabs
On With The Show Chords
Shallow End Chords
Too Late To Start Over Tabs
Before I Go Ukulele
Bring Me Down Ukulele
End Ukulele
Somewhere Ukulele


Song lyrics



↑ Back to top | Tablatures and chords are parodies/interpretations of the original songs. You may use it for private study, scholarship, research or language learning purposes only
© 2014 AZChords.com Contact us | Privacy policy | DMCA | Add/correct tabs | Request tabs | Top 50 tabs