» » »

Useless Id, No Time For Me To Be A Teenager Bass tabs (ver.1)

Artists:  A B C D E F G H I J K L M N O P Q R S T U V W X Y Z # 

No Time For Me To Be A Teenager Bass tabs (ver.1)

Useless Id Tabs
 Rating:
4/5 (4 votes)
No Time For Me To Be A Teenager lessons Tabs too difficult? Try these video lessons and learn fast
                +++++++++++++++++++++++++++++++++++++++++++++++
| Useless ID- No Time For Me To Be A Teenager |
+++++++++++++++++++++++++++++++++++++++++++++++


"You wont hear from me..."

Tuning: EADG


Intro
1.
G|------------------------------------------------|
D|------------------------------------------------|
A|-55~--------55~-------------------22~----00~----|
E|-----------------------33~----------------------|

2.
G|--------------------------------------------------------------------|
D|--------------------------------------------------------------------|
A|-55-55-555-555-5555-55-555-555-555-----------------2-22-2220-00-000-|
E|----------------------------------3-33-333-333-333------------------|

Verse
"Yesterday I called you up..."
3.
G|-------------------------------------------------------------------------|
D|-------------------------------------------------------------------------|
A|-55555555-22222222-------------------00000000-22222222---------------000-|
E|-------------------33333333-33333333-------------------33333333-33333----|

"Its been a while and nothing new..."
4.
G|-------------------------------------------------------------------------|
D|-------------------------------------------------------------------------|
A|-55555555-22222222-------------------00000000-22222222-------------------|
E|-------------------33333333-33333333-------------------33333333-33333333-|

Pre-Chorus
"Its time I gave it up..."
5.
G|-------------------------------------|
D|-------------------------------------|
A|-00000000-00000000-00000000-00000000-|
E|-------------------------------------|

Chorus
"No time for me to be a teenager..."
6.
G|-------------------------------------------------------------------------|
D|-------------------------------------------------------------------------|
A|-55555555----------22222222----------00000000-22222222-1---1-------------|
E|----------22222222----------33333333---------------------------3~--------|

"Im out of broken hearts..."
7.
G|-------------------------------------------------------------------------|
D|-------------------------------------------------------------------------|
A|-55555555----------22222222----------0000x----2222x----1---1-------------|
E|----------22222222----------33333333---------------------------3~--------|

Verse
"Opportunity exists..."
8.
G|-------------------------------------------------------------------------|
D|-------------------------------------------------------------------------|
A|-55555555-22222222-------------------00000000-22222222-------------------|
E|-------------------33333333-33333333-------------------33333333-33333----|

"This next journey starts alone..."
9.
G|-------------------------------------------------------------------------|
D|-------------------------------------------------------------------------|
A|-55555555-22222222-------------------00000000-22222222-------------------|
E|-------------------33333333-33333333-------------------33333333-33333333-|

Pre-Chorus
"You wont hear from me..."
10.
G|-------------------------------------|
D|-------------------------------------|
A|-00000000-00000000-00000000-0x-------|
E|-------------------------------------|

Chorus
"No time for me to be a teenager..."
11.
G|-------------------------------------------------------------------------|
D|-------------------------------------------------------------------------|
A|-55555555----------22222222----------00000000-22222222-11111111----------|
E|----------22222222----------33333333----------------------------33333333-|

"Im out of broken hearts..."
12.
G|-------------------------------------------------------------------------|
D|-------------------------------------------------------------------------|
A|-55555555----------22222222----------0000x----2222x----1---1-------------|
E|----------22222222----------33333333---------------------------3~--------|

Bridge
13.
G|--------------------------------------------------------------------|
D|--------------------------------------------------------------------|
A|-55-55-555-555-5555-55-555-555-555-----------------2-22-2220-00-000-|--x2
E|----------------------------------3-33-333-333-333------------------|

Outro
14.
G|-------------------|
D|-------------------|
A|-------------------|
E|-3~----------------|


Please rate thank you!


Lyrics:

Yesterday I called you up
Instead of a date I got turned down
It's been a while and nothing new
A hard time searching for that true and never ending love
It's time I gave it up

No time for me to be a teenager
These games are not worth going back there for
I'm out of broken hearts to give to you
I guess I'll save them all for someone new

Opportunity exists
You're taking advantage of the risk
This next journey starts alone
Till I get her I'll be gone and away
You won't hear from me



+++++++++++++++++++++++++++++++++
| RaiLeff                       |
+++++++++++++++++++++++++++++++++
            
Submit corrections

comments powered by Disqus
↑ Back to top | Useless Id Bass for No Time For Me To Be A Teenager. Lyrics for acoustic guitar and electric guitar. Tablatures and chords are parodies/interpretations of the original songs. You may use it for private study, scholarship, research or language learning purposes only