>
 >
Crush 1

Crush 1 Bass Tabs

Useless Id - Crush 1 chords, tabs, tablatures, lyrics

Guitar lessons | Add/correct | Request | Top 50 tabs Artists:  A B C D E F G H I J K L M N O P Q R S T U V W X Y Z 0-9

Crush 1 Bass Tabs – Useless Id

CD, Sheet music, Poster

Do you like Crush 1? Share with your friends now
Bass TabsBass Tabs v2Bass Tabs v3Tabs
-----------------------------------

 = strum
* = play note x5
# = play note x4
[0] = play the note shortly


intro
---------------------------------
---------------------------------
-[0]---22---------2222-4-2-------
-----------000-44----------4-2---

verse

----------------------------------
----------------------------------
----------0>--2>-3-4>--0>--2>-----
-0>--4>---------------------------

----------------------------------
----------------4-2---------------
----------0>--2>---4>--0>--2>-----
-0>--4>------------------------4>-


chorus (if i say hello..)

----------------------------------
----------------------------------
--0>------4>--2>--0>------2>------
------0>--------------0>------4>--

----------------------------------
----------------------------------
--0>------4>------[0]--22---------
------0>------4>------------------

-------------------------
-------------------------
---------2222-4-2--------
--000-44----------4-2----


verse (i know where you at, and you even better...)

---------------------------------
--------*--#--#--*---------------
--*--*--0--2--3--4---0*--2*------
--0--4---------------------------

---------------------------------
----6---4---2--------------------
--4---2---0---0------------------
---------------------------------

---------------------------------
-----------*--*---*--*--#--------
-----*--*--0--2-3-4--0--2--#-----
--0--0--4------------------4-----


chorus (if i say goodbye..)

----------------------------------
----------------------------------
--0>------4>--2>--0>------2>------
------0>--------------0>------4>--

----------------------------------
----------------------------------
--[0]-/7\-----4>----0>--22--------
-----------0>----4>---------------

bass solo

--------------------------------------------------
-------6---6------4---4------2---2-----9----------
--44-4---4---22-2---2---00-0---0----77-----6------
----------------------------------------88--------

--------------------------------------------------
-------6---6------4---4------2---2----------------
--44-4---4---22-2---2---00-0---0----2/7--[pause]--
--------------------------------------------------

--------------------------------------------------
-------6---6------4---4------2---2-----9----------
--44-4---4---22-2---2---00-0---0----77-----6------
----------------------------------------88-------- x3

--------------------------------------------------
-------6---6-----4--------------------------------
--44-4---4----22---22-4-0-------------------------
--------------------------------------------------

ending (nothing left to say..)

----------------|----------------------------------
----------------|----------------------------------
--22-22-22-22-2-|--0>------4>-----0-[let ring]-----
----------------|------0>------4>------------------

___________________________________________________

Enjoy.





Comments


Popular Useless Id tabs & chords
Have A Nice Life Bass Tabs
Lonely Heart Bass Tabs
The Worst Holiday Ive Ever Had Bass Tabs
Blood Pressure Chords
Killing A Ghost Chords
On With The Show Chords
It's Alright Tabs
No Time For Me To Be A Teenager 1 Tabs
Pink Stars And Magazines Tabs
Dying Love Ukulele


Song lyrics



↑ Back to top | Tablatures and chords are parodies/interpretations of the original songs. You may use it for private study, scholarship, research or language learning purposes only
© 2014 AZChords.com Contact us | Privacy policy | DMCA | Add/correct tabs | Request tabs | Top 50 tabs