» » »

Useless Id, Crush Bass tabs (ver.1)

Artists:  A B C D E F G H I J K L M N O P Q R S T U V W X Y Z # 

Crush Bass tabs (ver.1)

Useless Id Tabs
 Rating:
4/5 (4 votes)
Crush lessons Tabs too difficult? Try these video lessons and learn fast
                +++++++++++++++++++++
| Useless ID- Crush |
+++++++++++++++++++++

I got a crush on you...!

Tuning: EADG

Intro
1.
G|----------------------|
D|----------------------|
A|-0x--------22x--------|
E|----------------------|

2.
G|------------------------|
D|----------------1-2-2-4-|
A|---------2~-222---------|
E|-0-0-000----------------|

Verse
"I took a walk outside..."
3.
G|--------------------------------------------------------------------------|
D|--------------------------------------------------------------------------|
A|-------------------00000000-2222-3333-44444444-00000000-22222222-22222222-|
E|-00000000-44444444--------------------------------------------------------|

4.
G|--------------------------------------------------------------------------|
D|---------------------------------4444-------------------------------------|
A|-------------------00000000-2222------44444444-00000000-22222222----------|
E|-00000000-44444444-----------------------------------------------44444444-|

Chorus
"If I say hello..."
5.
G|-------------------------------------------------------------------------|
D|-------------------------------------------------------------------------|
A|-00000000----------44444444-22222222-00000000----------22222222----------|
E|----------00000000----------------------------00000000----------44444444-|

6.
G|----------------------------------------------------------|
D|----------------------------------------------------------|
A|-00000000----------44444444-22222222-0x--------22x--------|
E|----------00000000----------------------------------------|

Outro
"Tonight..."
7.
G|------------------------|
D|----------------1-2-2-4-|
A|---------2~-222---------|
E|-0-0-000----------------|

Verse
"I know where you're at..."
8.
G|-----------------------------------------------------------------|
D|-----------------------------------------------------------4-2-1-|
A|-----------------00000x--222-3333-44444x--0000000-22222x--2-2-2--|
E|-00000x--4444444-------------------------------------------------|

9.
G|---------------------------------------------------------------------|
D|---------------------------------------------------------------------|
A|------------------00000x--222-3333-44444x--0000000-22222222----------|
E|-00000000-4444444-------------------------------------------44444444-|

Chorus
10.
G|-------------------------------------------------------------------------|
D|-------------------------------------------------------------------------|
A|-00000000----------44444444-22222222-00000000----------22222222----------|
E|----------00000000----------------------------00000000----------44444444-|

11.
G|----------------------------------------------------------|
D|----------------------------------------------------------|
A|-0x--xxx-----------44444444-22222222-00000000x-22x--------|
E|----------00000000----------------------------------------|

Bridge (Bass Solo)
12.
G|--------------------------------------------------|
D|-------6---6-------4---4-------2---2--2-2-6-----4-|
A|-4-4-4---4---2-2-2---2---0-0-0---0----------2-2---|
E|--------------------------------------------------|

13.
G|--------------------------------------------------|
D|-------6---6-------4---4-------2---2--2x----------|
A|-4-4-4---4---2-2-2---2---0-0-0---0----------------|
E|--------------------------------------------------|

14.
G|--------------------------------------------------|
D|-------6---6-------4---4-------2---2--2-2-6-----4-|
A|-4-4-4---4---2-2-2---2---0-0-0---0----------2-2---|--x3
E|--------------------------------------------------|

15.
G|-----------------------------------|
D|-------6---6-------4---------------|
A|-4-4-4---4---2-2-2---3-4-0~--------|
E|-----------------------------------|

"But theres one more thing we should know..."
16.
G|-------------|
D|-------------|
A|-22222222----|
E|----------4x-|

Chorus
17.
G|-----------------------------------------------|
D|-----------------------------------------------|
A|-00000000----------44444444----------0~--------|
E|----------00000000----------44444444-----------|

Lyrics:


I took a walk outside and carried thoughts of you with me to the ocean.
A faded image seen from far away reminded me of you.
Mabye now it's time to let it out.

If I say hello, would you hide away?
While the dream of love at first site dies out.
Here I am losing you once agian, tonight.

I know where you're at and I know even better that I got a crush on 
since the summer came around.
If you'd listen up, give me achance to express the way I feel.
I promise you we'd be alright.

If I say goodbye, would it be the last?
2 more years and you might know me.
I will be the one singing this melody to you...

Nothing left to say since you heard it all.
But there's one more thing you should know.
Ever since that day I can't stop thinking of you.

+++++++++++++++++++++++++++++++++
| RaiLeff                       |
+++++++++++++++++++++++++++++++++
            
Submit corrections

comments powered by Disqus
↑ Back to top | Useless Id Bass for Crush. Lyrics for acoustic guitar and electric guitar. Tablatures and chords are parodies/interpretations of the original songs. You may use it for private study, scholarship, research or language learning purposes only