» » »

Useless Id, Crush Tabs (ver.1)

Artists:  A B C D E F G H I J K L M N O P Q R S T U V W X Y Z # 

Crush Tabs (ver.1)

Useless Id Tabs
Rating:
0/5 (0 votes)
Crush lessons Tabs too difficult? Try these video lessons and learn fast
                +++++++++++++++++++++
| Useless ID- Crush |
+++++++++++++++++++++

Tuning: EADGBe

Keys:

| h: Hammer On     |
| p: Pull Off      |
| ~: Let Note Ring |
| x: Mute          |
| /: Slide Up      |
| \: Slide Down    |
| b: Bend          |


Intro

Guitar 1

1.
e|-----------------------------------------------|
B|------------------4h5-b4~----------------------|
G|---------44--44x-------------------4-444-4444--|
D|-777-666-44--44x-----------2-22222-4-444-4444--|
A|-777-666-22--22x-----------2-22222-2-222-2222--|
E|-555-444-------------------0-00000-------------|

Guitar 2

2.
e|----------------------------------------------|
B|----------------------------------------------|
G|-222-222-22--44x------------------4-444-4444--|
D|-222-222-22--44x----------2-22222-4-444-4444--|
A|-000-000-00--22x----------2-22222-2-222-2222--|
E|--------------------------0-00000-------------|

Verse 

Both Guitars

"I took a walk outside..."

3.
e|-------------------------------------------------------------------------|
B|-------------------------------------------------------------------------|
G|-------------------22222222-44445555-66666666-22222222-44444444-44444444-|
D|-2-222222-66666666-22222222-44445555-66666666-22222222-44444444----------|
A|-2-222222-66666666-00000000-22223333-44444444-00000000-22222222----------|
E|-0-000000-44444444-------------------------------------------------------|

"A faded image seen from far away..."

4.
e|--------------------------------------------------------------------------|
B|----------------------------77777777--------------------------------------|
G|-------------------22222222-66666666-66666666-22222222-4-44444------------|
D|-2-222222-66666666-22222222-44444444-66666666-22222222-4-44444-6-666-6666-|
A|-2-222222-66666666-00000000----------44444444-00000000-2-22222-6-666-6666-|
E|-0-000000-44444444---------------------------------------------4-444-4444-|

Chorus

Guitar 1

"If I say hello, would you hide away?"

5.
e|-------------------------------------------------------------------------|
B|-------------------------------------------------------------------------|
G|-22222222----------66666666-44444444-22222222----------44444444----------|
D|-22222222-22222222-66666666-44444444-22222222-22222222-44444444-66666666-|
A|-00000000-22222222-44444444-22222222-00000000-22222222-22222222-66666666-|
E|----------00000000----------------------------00000000----------44444444-|

6.
e|---------------------------------------------------|
B|---------------------------------------------------|
G|-22222222----------66666666-44444444-22222222--44x-|
D|-22222222-22222222-66666666-44444444-22222222--44x-|
A|-00000000-22222222-44444444-22222222-00000000--22x-|
E|----------00000000---------------------------------|

Guitar 2

7.
e|-----0~---------0~------------0~---------0~------------0~---------0~------------0~---------0~--------|
B|--------0~---------0~------------0~---------0~------------0~---------0~------------0~---------0~-----|
G|-2~-----------------------6~---------4~------------2~-----------------------4~-----------------------|
D|-2~---------2~--------4~--6~---------4~--------4~--2~---------2~--------4~--4~---------6~--------4~--|
A|-0~---------2~------------4~---------2~------------0~---------2~------------2~---------6~------------|
E|------------0~------------------------------------------------0~-----------------------4~------------|

8.
e|-----0~---------0~------------0~---------0~----------------------------------|
B|--------0~---------0~------------0~---------0~----------------------8h9-b8~--|
G|-2~-----------------------6~---------4~------------222-----44--44x-----------|
D|-2~---------2~--------4~--6~---------4~--------4~--222-666-44--44x-----------|
A|-0~---------2~------------4~---------2~------------000-666-22--22x-----------|
E|------------0~-----------------------------------------444-------------------|

Outro

Both Guitars

9.
e|--------------------|
B|--------------------|
G|---------4-444-4444-|
D|-2-22222-4-444-4444-|
A|-2-22222-2-222-2222-|
E|-0-00000------------|

Verse

Both Guitars

"I know where you're at and you know even better..."

10.
e|---------------------------------------------------------|
B|---------------------------------------------------------|
G|-----------------22222x--4445555-66666x--2222222-44444x--|
D|-22222x--6666666-22222x--4445555-66666x--2222222-44444x--|
A|-22222x--6666666-00000x--2223333-44444x--0000000-22222x--|
E|-00000x--4444444-----------------------------------------|

"If you'd listen up, give me a chance..."

11.
e|------------------------------------------------------------------------|
B|------------------------------------------------------------------------|
G|--------------------22222x--4445555-66666x--2222222-4-44444-------------|
D|-22222222x--6666666-22222x--4445555-66666x--2222222-4-44444-6-666-6666--|
A|-22222222x--6666666-00000x--2223333-44444x--0000000-2-22222-6-666-6666--|
E|-00000000x--4444444-----------------------------------------4-444-4444--|

Chorus

Guitar 1

"If I say goodbye, would it be the last?"

12.
e|-------------------------------------------------------------------------|
B|-------------------------------------------------------------------------|
G|-22222222----------66666666-44444444-22222222----------44444444----------|
D|-22222222-22222222-66666666-44444444-22222222-22222222-44444444-66666666-|
A|-00000000-22222222-44444444-22222222-00000000-22222222-22222222-66666666-|
E|----------00000000----------------------------00000000----------44444444-|

13.
e|---------------------------------------------------|
B|---------------------------------------------------|
G|-2~----------------66666666-44444444-22222222--44x-|
D|-2~-------22222222-66666666-44444444-22222222--44x-|
A|-0~-------22222222-44444444-22222222-00000000--22x-|
E|----------00000000---------------------------------|

Guitar 2

14.
e|-----0~---------0~------------0~---------0~------------0~---------0~------------0~---------0~--------|
B|--------0~---------0~------------0~---------0~------------0~---------0~------------0~---------0~-----|
G|-2~-----------------------6~---------4~------------2~-----------------------4~-----------------------|
D|-2~---------2~--------4~--6~---------4~--------4~--2~---------2~--------4~--4~---------6~--------4~--|
A|-0~---------2~------------4~---------2~------------0~---------2~------------2~---------6~------------|
E|------------0~------------------------------------------------0~-----------------------4~------------|

15.
e|----------------0~------------0~---------0~------------------------|
B|-------------------0~------------0~---------0~---------------------|
G|-2~-----------------------6~---------4~------------22222222x--44x--|
D|-2~---------2~--------4~--6~---------4~--------4~--22222222x--44x--|
A|-0~---------2~------------4~---------2~------------00000000x--22x--|
E|------------0~-----------------------------------------------------|

Bridge

Bass Solo 

Both guitars come in at 1:47

16.
e|---------------------------------------|
B|----------------------------5-55-------|
G|-6-666-66-4-444-44-2-222-22-4-44-4-44--|
D|-6-666-66-4-444-44-2-222-22-2-22-4-44--|--x2
A|-4-444-44-2-222-22-0-000-00------3-33--|
E|---------------------------------------|

17.
e|---------------------------|
B|---------------------------|
G|-6-666-66-4-44-4-4-6-2~----|
D|-6-666-66-4-44-4-4-6-2~----|
A|-4-444-44-2-22-2-2-4-0~----|
E|---------------------------|

chorus

Guitar 1

"Nothing left to say since you heard it all..."

18.
e|--------------------------------------------------------------------|
B|--------------------------------------------------------------------|
G|-------------------------------------------------------44444444-----|
D|-------------------------------------------------------44444444-6x--|
A|-0000000-----------4444444-222222222-0000000-----------22222222-6x--|
E|---------000000000---------------------------000000000----------4x--|

19.
e|-----------------------------------------|
B|-----------------------------------------|
G|-22222222----------66666666----------2~--|
D|-22222222-22222222-66666666-66666666-2~--|
A|-00000000-22222222-44444444-66666666-0~--|
E|----------00000000----------44444444-----|

Guitar 2

20.
e|--------------|
B|--------------|
G|-44444444-----|
D|-44444444-6x--|
A|-22222222-6x--|
E|----------4x--|

21.
e|-----0~---------0~------------0~---------0~-------0~--|
B|--------0~---------0~------------0~---------0~----0~--|
G|-2~-----------------------6~----------------------2~--|
D|-2~---------2~--------4~--6~---------6~--------4~-2~--|
A|-0~---------2~------------4~---------6~-----------0~--|
E|------------0~-----------------------4~---------------|

Lyrics:


I took a walk outside and carried thoughts of you with me to the ocean.
A faded image seen from far away reminded me of you.
Mabye now it's time to let it out.

If I say hello, would you hide away?
While the dream of love at first site dies out.
Here I am losing you once again, tonight.

I know where you're at and you know even better that I got a crush on 
since the summer came around.
If you'd listen up, give me a chance to express the way I feel.
I promise you we'd be alright.

If I say goodbye, would it be the last?
two more years and you might know me.
I will be the one singing this melody to you...

Nothing left to say since you heard it all.
But there's one more thing you should know.
Ever since that day can't stop thinking of you.


+++++++++++++++++++++++++++++++++
| RaiLeff                       |
+++++++++++++++++++++++++++++++++
            
Submit corrections

comments powered by Disqus
↑ Back to top | Useless Id Tabs for Crush. Lyrics for acoustic guitar and electric guitar. Tablatures and chords are parodies/interpretations of the original songs. You may use it for private study, scholarship, research or language learning purposes only