>
 >
At Least I Tried 1

At Least I Tried 1 Guitar Tabs

Useless Id - At Least I Tried 1 chords, tabs, tablatures, lyrics

Guitar lessons | Add/correct | Request | Top 50 tabs Artists:  A B C D E F G H I J K L M N O P Q R S T U V W X Y Z 0-9

At Least I Tried 1 Guitar Tabs – Useless Id

CD, Sheet music, Poster

Do you like At Least I Tried 1? Share with your friends now
Bass TabsChordsTabsTabs v2Ukulele
#------------------------------------------------------------------------------##

Band: Useless ID
TUNE (E A D G B E)

Intro
Gtr I
|---------------------------------------------------|
|-----0-----0-----0------------0-----0-----0-----0--|
|---------------------------------------------------|
|---------------------------------------------------|
|-7-7---------------777666-4-4----------------------|
|-------4-4---5-5----------------4-4---5-5---7-7----|

Gtr I - Riff 1
|------------------------------------------------------------|
|------------------------------------------------------------|
|------------------------------------------------------------|
|-----6---------------------6-9S11-9-6-7-6--------6----------|
|-7-9---9-7--6-7-9-7-6--7-9----------------9--7-9---9-7-6----|
|------------------------------------------------------------|

|--------------------|
|--------------------|
|--------------------|
|-----6--------------|
|-7-9---9-7-9-7-6----|
|--------------------|


Intro/Verse
Gtr II
|----------------------------|
|-9--------9-6-5-------------|
|-9--4--5--9-8-6--4--5--7----|
|-9--6--7--9-8-6--6--7--9----|
|-7--6--7--7-6-4--6--7--9----|
|----4--5---------4--5--7----|


Chourse
|-------------------------|
|-9--------9-6-5----------|
|-9--5--7--9-8-6--5--7----|
|-9--7--9--9-8-6--7--9----|
|-7--7--9--7-6-4--7--9----|
|----5--7---------5--7----|


Outro
|------------------------------------------------------------------|
|------------------------------------------------------------------|
|------------------------------------------------------------------|
|-------------------------6------6-7--9-9-9-9-11-----------6-------|
|-4-4-6-7--6-6-7-9--7-7-9----9-9-----------------11-9-7-9----9-----|
|--------------------------------------------------------------9---|





Comments


Popular Useless Id tabs & chords
Crush Bass Tabs
Crush 1 Bass Tabs
Kiss Me Kill Me Bass Tabs
Already Dead Chords
It's Alright 1 Chords
Misconception Chords
Night Stalker Chords
On With The Show Chords
Blood Pressure Tabs
State Of Fear Tabs


Song lyrics



↑ Back to top | Tablatures and chords are parodies/interpretations of the original songs. You may use it for private study, scholarship, research or language learning purposes only
© 2014 AZChords.com Contact us | Privacy policy | DMCA | Add/correct tabs | Request tabs | Top 50 tabs