» » »

Useless Id, At Least I Tried Tabs (ver.1)

Artists:  A B C D E F G H I J K L M N O P Q R S T U V W X Y Z # 

At Least I Tried Tabs (ver.1)

Useless Id Tabs
 Rating:
3.4/5 (5 votes)
At Least I Tried lessons Tabs too difficult? Try these video lessons and learn fast
                #------------------------------------------------------------------------------##

Band: Useless ID
TUNE (E A D G B E)

Intro
Gtr I
|---------------------------------------------------|
|-----0-----0-----0------------0-----0-----0-----0--|
|---------------------------------------------------|
|---------------------------------------------------|
|-7-7---------------777666-4-4----------------------|
|-------4-4---5-5----------------4-4---5-5---7-7----|


Intro/Verse
Gtr II
|----------------------------|
|-9--------9-6-5-------------|
|-9--4--5--9-8-6--4--5--7----|
|-9--6--7--9-8-6--6--7--9----|
|-7--6--7--7-6-4--6--7--9----|
|----4--5---------4--5--7----|


Chourse
|-------------------------|
|-9--------9-6-5----------|
|-9--5--7--9-8-6--5--7----|
|-9--7--9--9-8-6--7--9----|
|-7--7--9--7-6-4--7--9----|
|----5--7---------5--7----|


Outro
|-------------------------------------------------------------------|
|-------------------------------------------------------------------|
|-------------------------------------------------------------------|
|-------------------------6------6-7--9-9-9-9-11-----------6--------|
|-4-4-6-7--6-6-7-9--7-7-9----9-9-----------------11-9-7-11---11-4---|
|-------------------------------------------------------------------|
            
Submit corrections

comments powered by Disqus
↑ Back to top | Useless Id Tabs for At Least I Tried. Lyrics for acoustic guitar and electric guitar. Tablatures and chords are parodies/interpretations of the original songs. You may use it for private study, scholarship, research or language learning purposes only