» » »

Useless Id, At Least I Tried Bass tabs (ver.1)

Artists:  A B C D E F G H I J K L M N O P Q R S T U V W X Y Z # 

At Least I Tried Bass tabs (ver.1)

Useless Id Tabs
 Rating:
4/5 (4 votes)
At Least I Tried lessons Tabs too difficult? Try these video lessons and learn fast
1
                ++++++++++++++++++++++++++++++++
| Useless ID- At Least I Tried |
++++++++++++++++++++++++++++++++


"How about I just wait one more monday..."

Tuning: Standard EADG


Intro
1.
G|-----------------------------------------------------|
D|-----------------------------------------------------|
A|-------------------------------------7-77-77-6-66-66-|
E|-0-00-00~----4-44-44~----5-55-55~--------------------|

2.
G|-------------------------------------------------|
D|-------------------------------------------------|
A|-4-44-44~----------------0-00-00~----2-22-22~----|
E|-------------4-44-44~----------------------------|

3.
G|-------------------------------------------------------------------------|
D|-------------------------------------------------------------------------|
A|-------------------------------------------------------77777777-66666666-|
E|-00000000-00000000-44444444-44444444-55555555-55555555-------------------|

4.
G|-------------------------------------------------------------------------|
D|-------------------------------------------------------------------------|
A|-44444444-44444444-------------------00000000-00000000-22222222-22222222-|
E|-------------------44444444-44444444-------------------------------------|

Verse
"How come first love..."
5.
G|-----------------------------------------------------------------|
D|-----------------------------------------------------------------|
A|------------------------------------------------7-77-7776-66-666-|
E|-000-000-000-0004-44-444-444-4445-55-555-555-555-----------------|

"Eight years ago..."
6.
G|-----------------------------------------------------------------|
D|-----------------------------------------------------------------|
A|-444-444-444-444----------------0-00-000-000-0002-22-2222-22-222-|
E|----------------4-44-444-444-444---------------------------------|

"Ever since then..."
7.
G|-------------------------------------------------------------------------|
D|-------------------------------------------------------------------------|
A|-------------------------------------------------------77777777-66666666-|
E|-00000000-00000000-44444444-44444444-55555555-55555555-------------------|

"How shy of me..."
8.
G|-------------------------------------------------------------------------|
D|-------------------------------------------------------------------------|
A|-44444444-44444444-------------------00000000-00000000-22222222-2x---66--|
E|-------------------44444444-44444444-------------------------------------|

Chorus
"Many days that I remember..."
9.
G|--------------------------------------------------------------------|
D|--------------------------------------------------------------------|
A|-------------------00000000-00000000-22222222-22222222-7~-77-6~-6-6-|
E|-00000000-00000000--------------------------------------------------|

"We're both alone and I cant help it..."
10.
G|-------------------------------------------------------------------------|
D|-------------------------------------------------------------------------|
A|-44444444-44444444-00000000-00000000-22222222-22222222-22222222-22222222-|
E|-------------------------------------------------------------------------|

Outro
11.
G|-------------------------------------------------------------------------|
D|-------------------------------------------------------------------------|
A|-------------------------------------------------------77777777-66666666-|
E|-00000000-00000000-44444444-44444444-55555555-55555555-------------------|

12.
G|-------------------------------------------------------------------------|
D|-------------------------------------------------------------------------|
A|-44444444-44444444-------------------00000000-00000000-22222222-22222222-|
E|-------------------44444444-44444444-------------------------------------|

Verse
"Its a rainy day outside..."
13.
G|-----------------------------------------------------|
D|---------------------------------------99------------|
A|---77----------66----------77-77~----7----77-6-66-66-|
E|-0----00~----7----77~----5---------------------------|

"I just saw you across the street..."
14.
G|-------------------------------------------------------|
D|---66-66~------66-66~----------------------------------|
A|-4-----------------------0-00-00~----2x----------------|
E|-------------4-----------------------------------------|

"Next stop Im getting off..."
15.
G|-------------------------------------------------------------------------|
D|-------------------------------------------------------------------------|
A|-------------------------------------------------------77777777-66666666-|
E|-00000000-00000000-44444444-44444444-55555555-55555555-------------------|

"You are gone"
16.
G|-------------------------------------------------------------------------|
D|-------------------------------------------------------------------------|
A|-44444444-44444444-------------------00000000-00000000-22222222-2x-------|
E|-------------------44444444-44444444-------------------------------------|

Chorus
"Many days that I remember..."
17.
G|--------------------------------------------------------------------|
D|--------------------------------------------------------------------|
A|-------------------00000000-00000000-22222222-22222222-7~-77-6~-6-6-|
E|-00000000-00000000--------------------------------------------------|

"We're both alone and I cant help it..."
18.
G|-------------------------------------------------------------------------|
D|-------------------------------------------------------------------------|
A|-44444444-44444444-00000000-00000000-22222222-22222222-22222222-3~-------|
E|-------------------------------------------------------------------------|

"I got a message you have someone..."
19.
G|----------------------------------------------------------------------|
D|----------------------------------------------------------------------|
A|-44444444-44444444-00000000-00000000-22222222-22222222-7~-77-9-9x-----|
E|----------------------------------------------------------------------|

"I can go on from now..."
20.
G|-------------------------------------------------------------------------|
D|-------------------------------------------------------------------------|
A|-44444444-44444444-00000000-00000000-22222222-22222222-2~----------------|
E|-------------------------------------------------------------------------|

Outro
21.
G|----------------------------------------|
D|----------------------------------------|
A|-0-0-0~----3-3-3~----4-4-4~----6~-------|
E|----------------------------------------|

22.
G|------------------------------------------------------|
D|------------------------------------------------------|
A|-77777777--3333333-44444444-2222222-0~----------------|
E|------------------------------------------------------|


Please rate thank you!!

Lyrics:


How come first love always last a life time? 8 years ago. 
First time that I saw you.
Ever since then I had my yearly thought 
of how shy of me to never come and tell you that...

Many days that I remember sitting by the phone,
crying and afraid to call you, knowing you're at home.
We're both alone and I can't help it.
How about I just wait one more monday...

It's a rainy day outside and it's colder on this bus.
I just saw you across the street, waiting.
Next stop I'm getting off to relive my 80's drama flick.
You are gone. Tommorrow I'll call in sick.

I got a message you have someone.
Happy all the time.
No room for me this time around.
Let's get on with our lives.
I can go on from now and know that deep inside,
At least I tried.



+++++++++++++++++++++++++++++++++
| RaiLeff                       |
+++++++++++++++++++++++++++++++++
            
Submit corrections

comments powered by Disqus
↑ Back to top | Useless Id Bass for At Least I Tried. Lyrics for acoustic guitar and electric guitar. 1 Tablatures and chords are parodies/interpretations of the original songs. You may use it for private study, scholarship, research or language learning purposes only