>
 >
Gone

Gone Guitar Tabs

Urban Dub - Gone chords, tabs, tablatures, lyrics

Guitar lessons | Add/correct | Request | Top 50 tabs Artists:  A B C D E F G H I J K L M N O P Q R S T U V W X Y Z 0-9

Gone Guitar Tabs – Urban Dub

CD, Sheet music, Poster

Do you like Gone? Share with your friends now
Tabs
Standard tuning
h: hammer, ~: vibrato, x: dead string


Intro Gtr.2 Hilum gamay
E-----------------------------
B-----------------------------
G-----------------------------
D-----------------------------
A---4---6---9---2---4---6---9-
E-0---0---0---0---0---0---0---

E---------------------------------
B---------------------------------
G---------------------------------
D---------------------------------
A---6-6-2-2-----6-6-2-2-----6-2-2-
E-4----------4-4---------4-4------

Intro Gtr.1 Saba na nuon..
E-------------------------------------
B-------------------------------------
G-9-9-9-9-9-9-9-9-9-9-9-9-9-9-9-9-9-9-
D-9-9-9-9-9-9-9-9-9-9-9-9-9-9-9-9-9-9-
A-7-7-7-7-7-7-7-7-7-7-7-7-7-7-7-7-7-7-
E-------------------------------------

E---------------------------------
B---------------------------------
G---------------------------------
D-6-6-6-6-6-6-6-6-6-6-6-6-6-6-6-6-
A-6-6-6-6-6-6-6-6-6-6-6-6-6-6-6-6-
E-4-4-4-4-4-4-4-4-4-4-4-4-4-4-4-4-

Verse I Gtr.1 & 2 Hilum sa tah..
E----------------------------------------------
B----------------------------------------------
G-9-9--9--9--9--9--9-9-8-8--8--8--8--8--8--8-8-
D-x-x--x--x--x--x--x-x-x-x--x--x--x--x--x--x-x-
A-7-7--7--7--7--7--7-7-6-6--6--6--6--6--6--6-6-
E----------------------------------------------

Verse II Gtr.2 reho ra gihapon...
E------------------------------
B------------------------------
G------------------------------
D------------------------------
A-7-9-9h10p9-7-9-9h10p9-7-999--
E-0----------0----------0------

E-------------------------
B-------------------------
G-8-8--8--8--8--8--8--8-8-
D-x-x--x--x--x--x--x--x-x-
A-6-6--6--6--6--6--6--6-6-
E-------------------------

Pre-Chorus Gtr.1 Saba napud!!
E----------------------------------------
B----------------------------------------
G----------------------------------------
D-2-2--2-2--2-2--2-2--6-6--6-6--6-6--6-6-
A-2-2--2-2--2-2--2-2--6-6--6-6--6-6--6-6-
E-0-0--0-0--0-0--0-0--4-4--4-4--4-4--4-4-

Pre-chorus Gtr.2 Saba again
E-------------------------------------------------------------------------------------
B-------------------------------------------------------------------------------------
G-11-11-11-11-11-11-11-11-------------15-15-15-15-15-15-15-15-------------------------
D-x--x--x--x--x--x--x--x---------------x--x--x--x--x--x--x--x-------------------------
A-9--9--9--9--9--9--9--9--9-9-6-6-9-9-13-13-13-13-13-13-13-13-13-13-9-9-13-13---------
E-------------------------------------------------------------------------------------

E-------------------------------------------------------------------------------------
B-------------------------------------------------------------------------------------
G-11-11-11-11-11-11-11-11-------------15-15-15-15-15-15-15-15-------------------------
D-x--x--x--x--x--x--x--x---------------x--x--x--x--x--x--x--x-------------------------
A-9--9--9--9--9--9--9--9--9-9-6-6-9-9-13-13-13-13-13-13-13-13-14-14-13-13-11-11-13-13-
E-------------------------------------------------------------------------------------

Chorus
gtr. 1
E-------------------------------------------------
B-------------------------------------------------
G--11-11-11--------------15-15-15-----------------
D--x--x--x--(2x)---------x--x--x-----(2x)--------- 4x
A--9--9--9---------------13-13-13-----------------
E-------------------------------------------------

gtr. 2
E-------------------------------------------------
B-------------------------------------------------
G-9--9--9--9--9--9--9-----------------------------
D-9--9--9--9--9--9--9----6--6--6--6--6--6--6------ 3x
A-7--7--7--7--7--7--7----6--6--6--6--6--6--6------
E-0--0--0--0--0--0--0----4--4--4--4--4--4--4------

E---------------------------------------------------------------------
B---------------------------------------------------------------------
G--8-8-8--9-9-9--11-11-11--12-12--11-9--8-----------------------------
D--x-x-x--x-x-x--x--x--x---x--x---x--x--x---6--6--6-------6--6--6--6--
A--6-6-6--7-7-7--9--9--9---10-10--9--7--6---6--6--6-6hp7--6--6--6--6--
E-------------------------------------------4--4--4-------4--4--4--4--

guitar 2 Saba jud...
E-----------------------------
B-----------------------------
G-----------------------------
D-----------------------------
A---4---6---9---2---4---6---9-
E-0---0---0---0---0---0---0---

E---------------------------------
B---------------------------------
G---------------------------------
D---------------------------------
A---6-6-2-2-----6-6-2-2-----6-2-2-
E-4----------4-4---------4-4------

Gtr.1 Cge palabi...
E-------------------------------------
B-------------------------------------
G-9-9-9-9-9-9-9-9-9-9-9-9-9-9-9-9-9-9-
D-9-9-9-9-9-9-9-9-9-9-9-9-9-9-9-9-9-9-
A-7-7-7-7-7-7-7-7-7-7-7-7-7-7-7-7-7-7-
E-------------------------------------

E---------------------------------
B---------------------------------
G---------------------------------
D-6-6-6-6-6-6-6-6-6-6-6-6-6-6-6-6-
A-6-6-6-6-6-6-6-6-6-6-6-6-6-6-6-6-
E-4-4-4-4-4-4-4-4-4-4-4-4-4-4-4-4-

repeat verse 

Chorus II
gtr. 1
E-------------------------------------------------
B-------------------------------------------------
G--11-11-11--------------15-15-15-----------------
D--x--x--x--(2x)---------x--x--x-----(2x)--------- 4x
A--9--9--9---------------13-13-13-----------------
E-------------------------------------------------

gtr. 2
E-------------------------------------------------
B-------------------------------------------------
G-9--9--9--9--9--9--9-----------------------------
D-9--9--9--9--9--9--9----6--6--6--6--6--6--6------ 3x
A-7--7--7--7--7--7--7----6--6--6--6--6--6--6------
E-0--0--0--0--0--0--0----4--4--4--4--4--4--4------

E---------------------------------------------------------------------
B---------------------------------------------------------------------
G--8-8-8--9-9-9--11-11-11--12-12--11-9--8-----------------------------
D--x-x-x--x-x-x--x--x--x---x--x---x--x--x-----------------------------
A--6-6-6--7-7-7--9--9--9---10-10--9--7--6-----------------------------
E---------------------------------------------------------------------


Bridge I Gtr.1 Astan kani saba ghapon...
E-----------------------
B-----------------------
G-----------------------
D-4/6-7-6-4/6-7-6-4-7-6-
A-4/6-7-6-4/6-7-6-4-7-6-
E-2/4-5-4-2/4-5-4-2-5-4-
pm    - -     - -

gtr 2
E----------------------------------
B----------------------------------
G--9\8-6-8-9\8-6-6-9\8-6-8-9\8-6---
D--x-x-x-x-x-x-x-x-x-x-x-x-x-x-x---
A--7\6-4-6-7\6-4-8-7\6-4-6-7\6-4---
E----------------------------------

E---------------------------------------------------------------------------------
B---------------------------------------------------------------------------------
G-8-8-8-8-8-8-8--9-9-9-11-11-11-9/11--8-8-8-8-8-9-9-9-9-9-11-11-11-11-13-13-13-13-
D-x-x-x-x-x-x-x--x-x-x-x--x--x--x-x---x-x-x-x-x-x-x-x-x-x-x--x--x--x--x--x--x--x--
A-6-6-6-6-6-6-6--7-7-7-9--9--9--7/9---6-6-6-6-6-6-7-7-7-7-9--9--9--9--11-11-11-11-
E---------------------------------------------------------------------------------


Bridge II Gtr.1 Saba pah..
E-------------------------------------
B-------------------------------------
G------------6--4--2------------6-6-6-
D-2-2-2-2-2--6--4--2--2-2-2-2-2-6-6-6-
A-2-2-2-2-2--4--2--0--2-2-2-2-2-4-4-4-
E-0-0-0-0-0-----------0-0-0-0-0-4-4-4-

Bridge II Gtr.2 Saba kaayo....
E-------------------------------------
B-------------------------------------
G---------------------11--8--6--11----
D-11h13-13-11h13-13---x---x--x--x-----
A---------------------9---6--4--9-----
E-------------------------------------

E-------------------------------------
B-------------------------------------
G----------------------8~~~~~~~~------
D-11h13-13-11h13-13----x--------------
A----------------------6~~~~~~~~------
E-------------------------------------

repeat pre chorus

Chorus III
gtr. 1
E-------------------------------------------------
B-------------------------------------------------
G--11-11-11--------------15-15-15-----------------
D--x--x--x--(2x)---------x--x--x-----(2x)--------- 4x
A--9--9--9---------------13-13-13-----------------
E-------------------------------------------------


gtr. 2
E-------------------------------------------------
B-------------------------------------------------
G-9--9--9--9--9--9--9-----------------------------
D-9--9--9--9--9--9--9----6--6--6--6--6--6--6------ 2x
A-7--7--7--7--7--7--7----6--6--6--6--6--6--6------
E-0--0--0--0--0--0--0----4--4--4--4--4--4--4------

E---------------------------------------------------------------------
B---------------------------------------------------------------------
G--8-8-8--9-9-9--11-11-11--12-12--11-9--8-----------------------------
D--x-x-x--x-x-x--x--x--x---x--x---x--x--x---6--6--6-------6--6--6--6--2x
A--6-6-6--7-7-7--9--9--9---10-10--9--7--6---6--6--6-6hp7--6--6--6--6--
E-------------------------------------------4--4--4-------4--4--4--4--

Coda Gtr.1 Balik sa tah limpyu beh...
E---------------------------------------
B---------------------------------------
G----------13-------13-------13---------
D-13-13-13----13-13----13-13----13-13---
A---------------------------------------
E---------------------------------------

Coda Gtr.2 Limpyu na hilum...
E--------7------7-----7-----------------
B----9-----9------9-----9---------------
G--8---8-----8------8-----8-------------
D---------------------------------------
A---------------------------------------
E---------------------------------------

coda Gtr.1 
E----------------------------------------------------
B----------------------------------------------------
G----------------------------------------------------
D--4-4-4-4-4-4-4-4-4-6-6-6-6-6-6-6-6-6-6-6-6-6-6-6-6-
A--4-4-4-4-4-4-4-4-4-6-6-6-6-6-6-6-6-6-6-6-6-6-6-6-6-
E--2-2-2-2-2-2-2-2-2-4-4-4-4-4-4-4-4-4-4-4-4-4-4-4-4-
p.m.............................................

coda gtr 2
E----------------------------------------------------
B----------------------------------------------------
G----------------------------------------------------
D---------4h6-------4h6------------------------------
A-----6---------6------------------------------------
E---4---4-----4---4----------------------------------
p.m....................

last chorus (Padung na mu fade)
gtr.1
E---------------------------------
B---------------------------------
G---------------------------------
D-2-2-2-2-2-2-2-2-2-2-2-2-2-2-2-2-
A-2-2-2-2-2-2-2-2-2-2-2-2-2-2-2-2-
E-0-0-0-0-0-0-0-0-0-0-0-0-0-0-0-0-

E---------------------------------
B---------------------------------
G---------------------------------
D-6-6-6-6-6-6-6-6-6-6-6-6-6-6-6-6-
A-6-6-6-6-6-6-6-6-6-6-6-6-6-6-6-6-
E-4-4-4-4-4-4-4-4-4-4-4-4-4-4-4-4-


E-----------------------------------------------------------
B-----------------------------------------------------------
G--11-11-11-11-8-8-8-8-11-11-11-11-18-18-18-18--------------
D--x--x--x--x--x-x-x-x-x--x--x--x--x--x--x--x---------------
A--9--9--9--9--6-6-6-6-9--9--9--9--16-16-16-16--------------
E-----------------------------------------------------------

E-----------------------------------------------------------
B-----------------------------------------------------------
G--15-15-15-15-11-11-11-11-15-15-15-15-11-11----------------
D--x--x--x--x--x--x--x--x--x--x--x--x--11-11----------------
A--13-13-13-13-9--9--9--9--13-13-13-13-9--9-----------------
E-----------------------------------------------------------

hahay...ka kapoy...suwayi lang..mao man cgro nah...if dili gali 





Comments


Popular Urban Dub tabs & chords
A Call To Arms 2 Chords
The Fight Is Over Chords
Tongue Like Knives Chords
What This Night Brings Chords
2 Things Tabs
Fallen On Deaf Ears 2 Tabs
First Of Summer 4 Tabs
Guillotine 4 Tabs
Sailin 1 Tabs
Soul Searching Tabs


Song lyrics



↑ Back to top | Tablatures and chords are parodies/interpretations of the original songs. You may use it for private study, scholarship, research or language learning purposes only
© 2014 AZChords.com Contact us | Privacy policy | DMCA | Add/correct tabs | Request tabs | Top 50 tabs