» » »

Future Tabs (ver.1)

Artists:  A B C D E F G H I J K L M N O P Q R S T U V W X Y Z # 

Future Tabs (ver.1)

Urban Dub
Rating:
4/5 (1 vote)

Hard to play? Try these video lessons and learn fast.
                
Pacenxa...kung mali dito..paki tama nalang..hehe

Tuning Drop D:
Intro:
              Then:
e--xxxx--|------------------------------------------------|
b--xxxx--|------------------------------------------------|
g--9999--|------------------------------------------------|
D--9999--|--3------------6666--1111------------6666--1111-|
A--7777--|--3------------6666--1111------------6666--1111-|
D--------|--3-0-5-8h10---6666--1111-3-0-5-8h10-6666--1111-|        

Let the word spread out like fire
Building bridges to unite one blood
There’s more to life than this tragedy
I’m gonna be choosing to survive
Refuse to stand aside
We lift the voice and we get up on us
We unite to ignite (challenge)
Guitar 1:
e----------------------------------------------|
b---------|------------------------------------|
g--999999-|------------------------------------|
D--999999-|-77777-7------7------7--------------|
A--777777-|-77777-7-10h9-7-10h9-7-1019---------|
D---------|-77777-7------7------7--------------|
We lift the voice and we get up on us
We unite to ignite (challenge)

Pre-Chorus:

e-------------------------|
b-------------------------|
g-------------------------|
D--7777--33333---777777---|
A--7777--33333---777777---|
D--7777--33333---777777---|

I’m breathing in a new beginning
Precious life is in the air
Spread the word and not the hurt
Spread the word and not the hurt

Chorus:
We are the future
We own the future
e---------|
b---------|
g---------|
D--77777--|
A--77777--|
D--77777--|
Let the youth open their minds
The right the right to stay alive
e-------------------|
b-------------------|
g-------------------|
D---101010--121212--|
A---101010--121212--|
D---101010--121212--|

Verse:
e---------------------------------------|
b---------------------------------------|
g---------------------------------------|
D--5-7h6--7h6----5-7h6---7h6----5-7h6---|
A--5----7-----7--5-----7--------5----7--|
D--5-------------5--------------5-------|

Every minute, humanity i claim
Born every minute is a victim
But we turn away

Open your eyes, open your eyes wide
To the information
And subscribe to stay alive

Open your eyes, open your eyes
Breath the air and stay alive
Spread the word and not the hurt
Spread the word and not the hurt

(I refuse to stand aside)
We own the future
(I choose to stay alive)
We own the future
(Refuse to stand aside)
We own the future
(We have the right to stay alive)
We have the right to stay alive
We have the right to stay alive
We have the right to stay alive
The right stay to stay alive 
            
Hard to play? Try these video lessons and learn fast. | Correct




comments powered by Disqus
↑ Back to top | Tablatures and chords are parodies/interpretations of the original songs. You may use it for private study, scholarship, research or language learning purposes only