>
 >
Breakdown

Breakdown Guitar Tabs

Urban Dub - Breakdown chords, tabs, tablatures, lyrics

Guitar lessons | Add/correct | Request | Top 50 tabs Artists:  A B C D E F G H I J K L M N O P Q R S T U V W X Y Z 0-9

Breakdown Guitar Tabs – Urban Dub

CD, Sheet music, Poster

Do you like Breakdown? Share with your friends now
Tabs
Band: Urban Dub

I dedicate this work to: all you urban dub fans out there who would love to play their
songs on a simple acoustic guitar. also to jozen->wuzzup girl, miss na kita... nacky->
oi tol, salamat sa lahat! zenadie->ingatz ka wherever you go. tine c.->matututo ka rin
magtab dude. and lastly to harold, my bro->damn, hirap kang turuan mag gitara!
ATTENTION:
*Hey peepz, there may be some mistakes in here due to my clumsiness in typing
whahahaha...I can only assure you that this tab is 94%-98% correct ok?
*Makining ng mabuti sa CD
*Standard turning for both guitars

INTRO & VERSE

=Guitar 1=

-----------------------------------------|
-----------------------------------------|
-----------------------------------------|
-----9----------10p9---------------------|
7-7---10-10---------10-7-----------------|
------------10-8-------------------------|

-----------------------------------------|
-----------------------------------------|
-----------------------------------------|
-----9-------------10-9h10p9h10----------|
7-7---10-10------------------------------|
--------------10-8-----------------------|

-----------------------------------------|
-----------------------------------------|
-----------------------------------------|
-----9---------------10p9----------------|
7-7---10-10--------------10-7------------|
---------------10-8----------------------|

------------------------------------------|
------------------------------------------|
------------------------------------------|
-----9--------------10-9------------------|
7-7---10-10-------------------------------|
---------------10-8-----------------------|


BRIDGE 1


=Guitar 1=

-----------------------------------------|
-----------------------------------------|
12-12----12-12-12-12-12-12-12------------|  makinig ka na lang sa CD para
-------14--------------------------------|   malaman mo kung ilang beses
-----------------------------------------|           yan ipplay
-----------------------------------------|


CHORUS

=Guitar 1=

--------------------------------------------------|
--------------------------------------------------|
8-8-8-8--9--8s4-4-4-4-4-4-4-4-4s6--6s8------------|
8-8-8-8--9--8s4-4-4-4-4-4-4-4-4s6--6s8------------|
6-6-6-6--7--6s2-2-2-2-2-2-2-2-2s4--4-6------------|
--------------------------------------------------|

*before 2nd verse starts, gt.1 is already playing the verse's chords while gt.2 plays 
until the 2nd verse starts*

=Guitar 2=

---------------------------------------------|
---------------------------------------------|
--------------------------------7-7----------|
------------9-9---------------------10s9-----|
7-7-10-7------10-7-7-10-7--------------------|
---------------------------------------------|


*VERSE*


BRIDGE 2

=Guitar 1=

-----------------------------------------|
-----------------------------------------|
12-12-12-12-12-12-12-12-12-12------------|  makinig ka na lang sa CD para
-----------------------------------------|   malaman mo kung ilang beses
-----------------------------------------|            yan ipplay
-----------------------------------------|


*CHORUS*


INTERLUDE

=Guitar 2=

---------------------------------------------|
---------------------------------------------|
--------------------------7-7----------------|
----------9----9---------------10s9----------|
7-7-10-7------10-7-7-10-7--------------------|
---------------------------------------------|

=Guitar 1=

*gt.1 plays this just before the interlude ends-just listen to the song to get the 
right*

-----------------------------------------|
-----------------------------------------|
-----------------------------------------|
-----------------------------------------|
----------2-2------------5-5-3s2---------|
0-0-3-0-----3-0-0-3-0--------------------|


*CHORUS*


OUTRO

=Guitar 1=

-----------------------       -------|
-----------------------       -------|
----4-------4----------  2x   -------|
----4-------4----------       -------|
0---2---0---2---2------       ---0---|
0-------0-------2------       ---0---|

=Guitar 2=

-----------------------------------------|
-----------------------------------------|
-----------------------------------------|
-----9---------------10p9----------------|
7-7---10-10--------------10-7------------|
---------------10-8----------------------|

-----------------------------------------|
-----------------------------------------|
-----------------------------------------|
-----9-------------10-9h10p9h10----------|
7-7---10-10------------------------------|
--------------10-8-----------------------|

-----------------------------------------|
-----------------------------------------|
-----------------------------------------|
-----9---------------10p9----------------|
7-7---10-10--------------10-7------------|
---------------10-8----------------------|

------------------------------------------|
------------------------------------------|
------------------------------------------|
-----9--------------10-9------------------|
7-7---10-10-------------------------------|
---------------10-8-----------------------|





Comments


Popular Urban Dub tabs & chords
Apart Bass Tabs
Come Bass Tabs
Soul Searching Bass Tabs
Safety In Numbers Chords
A New Tattoo 1 Tabs
Guillotine 1 Tabs
Sailin Tabs
What This Night Brings Tabs
A Call To Arms Ukulele
Tongue Like Knives Ukulele


Song lyrics



↑ Back to top | Tablatures and chords are parodies/interpretations of the original songs. You may use it for private study, scholarship, research or language learning purposes only
© 2014 AZChords.com Contact us | Privacy policy | DMCA | Add/correct tabs | Request tabs | Top 50 tabs