» » »

Zony - Stars Tabs (ver.1)

Artists:  A B C D E F G H I J K L M N O P Q R S T U V W X Y Z # 

Zony - Stars Tabs (ver.1)

Unsigned
Rating:
0/5 (0 votes)

Hard to play? Try these video lessons and learn fast.
                Zony StarsZony StarsZony StarsZony StarsZony StarsZony StarsZony StarsZony StarsZony StarsZony StarsZony StarsZony StarsZony StarsZony StarsZony StarsZony StarsZony StarsZony StarsZony StarsZony StarsZony StarsZony StarsZony StarsZony StarsZony Stars


stars is a slow song so play it a little slow

Intro
D---9--9-8---8--8-7--6---6-5---6-5-3-2---
A-9---9----8--8----6---6-----------------
E-9---9----8--8----6---6-----------------
x2

Riff 1
D-9-9-9-9--7-7-7-7-5--7-7-7-5v-
A-7-7-7-7--5-5-5-5-3--5-5-5-3v-
x2

verse 1
D----7----
A-------7-
E-5-------
x10
Pre chorus
D---9---7---5--7----
A-9---7---5---7-----
E-7---5---3---5-----
X2
CHORUS
D----9----7----5--7--
A-99---77---55---7---
E-77---55---33---5---
X2
RIFF 2
D-9-9-9-9-7-7-7-7-5-5-5-5-7-7-7-7--
A--7-7-7-7-5-5-5-5-3-3-3-3-5-5-5-5-
X2
VERSE2
G-----7V----9V-----11V-11/7--------
D---7V----9V----11V------/7--------
A-5V----7V----9V---------/5--------
X2
VERSE 3
D------9------7------5---7---
A-9999---7777---5555---77----
E-7777---5555---3333---55----
X4
OUTROX2
D---11-------9--------7-------5-----------2
A-----11-------9--------7-------5-------2--
E-9--------7--------5------3---------0-----
 |  X4  | | X4   | |  X4 || X 4  |

PLAYING ORDER
intro
riff 1
verse
pre chorus
chorus
riff 2
verse
riff 1
pre chorus
chorus
intro
riff 1
riff 2
verse
verse 2
verse 3
outro
            
Hard to play? Try these video lessons and learn fast. | Correct




comments powered by Disqus
↑ Back to top | Tablatures and chords are parodies/interpretations of the original songs. You may use it for private study, scholarship, research or language learning purposes only