» » »

Xenik - End Of Me Bass tabs (ver.1)

Artists:  A B C D E F G H I J K L M N O P Q R S T U V W X Y Z # 

Xenik - End Of Me Bass tabs (ver.1)

Unsigned
Rating:
0/5 (0 votes)

Hard to play? Try these video lessons and learn fast.
                Standard Tuning: E, A, D, G

Main Riff(Intro):
G|-------3-4-3----||-------3-4-3----||-------3-4-3----||-------3-4-3----|
D|---4-6-------6-4||---4-6-------6-4||---4-6-------6-4||---4-6-------6-4|
A|-3--------------||-3--------------||-3--------------||-3--------------|
E|----------------||----------------||----------------||----------------|


G|-------3-4-3----||-------3-4-3----||-------3-4-3----||-------3-4-3----|
D|---4-6-------6-4||---4-6-------6-4||---4-6-------6-4||---4-6-------6-4|
A|-3--------------||-3--------------||-3--------------||-3--------------|
E|----------------||----------------||----------------||----------------|

G|-------3-4-3----||-------3-4-3----||-------3-4-3----||-------3-4-3----|
D|---4-6-------6-4||---4-6-------6-4||---4-6-------6-4||---4-6-------6-4|
A|-3--------------||-3--------------||-3--------------||-3--------------|
E|----------------||----------------||----------------||----------------|

G|-------3-4-3----||-------3-4-3----||-------3-4-3----||-------3-4-3----|
D|---4-6-------6-4||---4-6-------6-4||---4-6-------6-4||---4-6-------6-4|
A|-3--------------||-3--------------||-3--------------||-3--------------|
E|----------------||----------------||----------------||----------------|

G|-------3-4-3----||-------3-4-3----||-------3-4-3----||-------3-4-3----|
D|---4-6-------6-4||---4-6-------6-4||---4-6-------6-4||---4-6-------6-4|
A|-3--------------||-3--------------||-3--------------||-3--------------|
E|----------------||----------------||----------------||----------------|
            
Hard to play? Try these video lessons and learn fast. | Correct




comments powered by Disqus
↑ Back to top | Tablatures and chords are parodies/interpretations of the original songs. You may use it for private study, scholarship, research or language learning purposes only