» » »

Xanax - Rise Tabs (ver.1)

Artists:  A B C D E F G H I J K L M N O P Q R S T U V W X Y Z # 

Xanax - Rise Tabs (ver.1)

Unsigned
Rating:
0/5 (0 votes)

Tabs too difficult? Try these video lessons and learn fast.
                Tuning: Drop D

Very rough tab,if you know the song mail me with corrections and 
I'll update it, I only put down the intro, most of the chords are easy to work 

Intro
e---------------------------------------------
B---------------------------------------------
G---------------------------------------------
D----0---3---5h6-5-3-0----5-3-7-5-7-7h8p7-----
A---------------------------------------------
D-0--------------------3----------------------

e---------------------------------------------
B---------------------------------------------
G-------------------------5----7--(3--5h6-5)--
D----0---3---5h6-5-3-0----3----5--------------
A---------------------------------------------
D-0--------------------3----------------------
			   hold>>>>>>>>>>>>>>>
            
Tabs too difficult? Try these video lessons and learn fast.




comments powered by Disqus
↑ Back to top | Tablatures and chords are parodies/interpretations of the original songs. You may use it for private study, scholarship, research or language learning purposes only