» » »

Unsigned, World Without End - Dream Land Tabs (ver.1)

Artists:  A B C D E F G H I J K L M N O P Q R S T U V W X Y Z # 

World Without End - Dream Land Tabs (ver.1)

Unsigned Tabs
 Rating:
4/5 (4 votes)
World Without End - Dream Land lessons Tabs too difficult? Try these video lessons and learn fast
                My Band isnt together yet but I wrote this song for the insane
Intro
E-------------------------------------------------------------------------------
B-------------------------------------------------------------------------------
G-------------------------------------------------------------------------------
D-------------------------------------------------------------------------------
A--o--o---o-2---o---o---o--3--o---o---o--2----o--o--o--3--o--o-o---o-o-o--o-o-o
E----------------------------------------------------------------2-------3-----
Verse
E------------------------------------------------------
G------------------------------------------------------
B--1-1-------1-1---1-1-1-------------------------------- repeat 5 times
D--2-2-pause-2-2---2-2-2---------------------------------
A--2-2-------2-2---2-2-2----------------------------------
E------------------------------------------------------
chorse
E------------------------------------------------------
G------------------------------------------------------
B---1-1-1------1--1--------1-1--------1-1----------------------
D---2-2-2------2--2--------2-2--------2-2---------------
A---2-2-2------2--2--------2-2--------2-2-----------------
E---------3--4------3---4------3----4------3b--4b----------------
then just do the verse and the chorse 2 more times and thats my song. Look out for my band WORLD WITHOUT END!!!!!!!!!!!
            
Submit corrections

comments powered by Disqus
↑ Back to top | Unsigned Tabs for World Without End - Dream Land. Lyrics for acoustic guitar and electric guitar. Tablatures and chords are parodies/interpretations of the original songs. You may use it for private study, scholarship, research or language learning purposes only